ISO-10303-21;
HEADER;
/* Generated by software containing ST-Developer
 * from STEP Tools, Inc. (www.steptools.com) 
 */

FILE_DESCRIPTION(
/* description */ (''),
/* implementation_level */ '2;1');

FILE_NAME(
/* name */ '\\\\SYNOLOGYNAS\\web\\db2\\S-AGS5050-L\\S-AGS5050-L.stp',
/* time_stamp */ '2025-10-22T18:55:57+09:00',
/* author */ ('user'),
/* organization */ (''),
/* preprocessor_version */ 'ST-DEVELOPER v15.6',
/* originating_system */ 'Autodesk Inventor 2015',
/* authorisation */ '');

FILE_SCHEMA (('AUTOMOTIVE_DESIGN { 1 0 10303 214 3 1 1 }'));
ENDSEC;

DATA;
#10=MECHANICAL_DESIGN_GEOMETRIC_PRESENTATION_REPRESENTATION('',(#13),#663);
#11=SHAPE_REPRESENTATION_RELATIONSHIP('SRR','None',#672,#12);
#12=ADVANCED_BREP_SHAPE_REPRESENTATION($,(#14),#662);
#13=STYLED_ITEM('',(#681),#14);
#14=MANIFOLD_SOLID_BREP('\X2\C194B9ACB4DC\X0\1',#387);
#15=CONICAL_SURFACE('',#416,3.25,60.);
#16=CONICAL_SURFACE('',#420,3.25,60.);
#17=CONICAL_SURFACE('',#424,3.25,60.);
#18=CONICAL_SURFACE('',#428,3.25,60.);
#19=FACE_BOUND('',#70,.T.);
#20=FACE_BOUND('',#71,.T.);
#21=FACE_BOUND('',#72,.T.);
#22=FACE_BOUND('',#73,.T.);
#23=FACE_BOUND('',#81,.T.);
#24=FACE_BOUND('',#83,.T.);
#25=FACE_BOUND('',#85,.T.);
#26=FACE_BOUND('',#87,.T.);
#27=FACE_BOUND('',#89,.T.);
#28=FACE_BOUND('',#91,.T.);
#29=FACE_BOUND('',#93,.T.);
#30=FACE_BOUND('',#95,.T.);
#31=FACE_BOUND('',#99,.T.);
#32=FACE_BOUND('',#100,.T.);
#33=FACE_BOUND('',#101,.T.);
#34=FACE_BOUND('',#102,.T.);
#35=PLANE('',#392);
#36=PLANE('',#396);
#37=PLANE('',#397);
#38=PLANE('',#410);
#39=PLANE('',#413);
#40=PLANE('',#432);
#41=PLANE('',#433);
#42=PLANE('',#434);
#43=FACE_OUTER_BOUND('',#65,.T.);
#44=FACE_OUTER_BOUND('',#66,.T.);
#45=FACE_OUTER_BOUND('',#67,.T.);
#46=FACE_OUTER_BOUND('',#68,.T.);
#47=FACE_OUTER_BOUND('',#69,.T.);
#48=FACE_OUTER_BOUND('',#74,.T.);
#49=FACE_OUTER_BOUND('',#75,.T.);
#50=FACE_OUTER_BOUND('',#76,.T.);
#51=FACE_OUTER_BOUND('',#77,.T.);
#52=FACE_OUTER_BOUND('',#78,.T.);
#53=FACE_OUTER_BOUND('',#79,.T.);
#54=FACE_OUTER_BOUND('',#80,.T.);
#55=FACE_OUTER_BOUND('',#82,.T.);
#56=FACE_OUTER_BOUND('',#84,.T.);
#57=FACE_OUTER_BOUND('',#86,.T.);
#58=FACE_OUTER_BOUND('',#88,.T.);
#59=FACE_OUTER_BOUND('',#90,.T.);
#60=FACE_OUTER_BOUND('',#92,.T.);
#61=FACE_OUTER_BOUND('',#94,.T.);
#62=FACE_OUTER_BOUND('',#96,.T.);
#63=FACE_OUTER_BOUND('',#97,.T.);
#64=FACE_OUTER_BOUND('',#98,.T.);
#65=EDGE_LOOP('',(#259,#260,#261,#262));
#66=EDGE_LOOP('',(#263,#264,#265,#266));
#67=EDGE_LOOP('',(#267,#268,#269,#270));
#68=EDGE_LOOP('',(#271,#272,#273,#274));
#69=EDGE_LOOP('',(#275,#276,#277,#278,#279,#280,#281,#282,#283,#284,#285,
#286));
#70=EDGE_LOOP('',(#287));
#71=EDGE_LOOP('',(#288));
#72=EDGE_LOOP('',(#289));
#73=EDGE_LOOP('',(#290));
#74=EDGE_LOOP('',(#291,#292,#293,#294));
#75=EDGE_LOOP('',(#295,#296,#297,#298));
#76=EDGE_LOOP('',(#299,#300,#301,#302));
#77=EDGE_LOOP('',(#303,#304,#305,#306));
#78=EDGE_LOOP('',(#307,#308,#309,#310));
#79=EDGE_LOOP('',(#311,#312,#313,#314));
#80=EDGE_LOOP('',(#315));
#81=EDGE_LOOP('',(#316));
#82=EDGE_LOOP('',(#317));
#83=EDGE_LOOP('',(#318));
#84=EDGE_LOOP('',(#319));
#85=EDGE_LOOP('',(#320));
#86=EDGE_LOOP('',(#321));
#87=EDGE_LOOP('',(#322));
#88=EDGE_LOOP('',(#323));
#89=EDGE_LOOP('',(#324));
#90=EDGE_LOOP('',(#325));
#91=EDGE_LOOP('',(#326));
#92=EDGE_LOOP('',(#327));
#93=EDGE_LOOP('',(#328));
#94=EDGE_LOOP('',(#329));
#95=EDGE_LOOP('',(#330));
#96=EDGE_LOOP('',(#331,#332,#333,#334));
#97=EDGE_LOOP('',(#335,#336,#337,#338));
#98=EDGE_LOOP('',(#339,#340,#341,#342,#343,#344,#345,#346,#347,#348,#349,
#350));
#99=EDGE_LOOP('',(#351));
#100=EDGE_LOOP('',(#352));
#101=EDGE_LOOP('',(#353));
#102=EDGE_LOOP('',(#354));
#103=LINE('',#559,#127);
#104=LINE('',#562,#128);
#105=LINE('',#565,#129);
#106=LINE('',#567,#130);
#107=LINE('',#568,#131);
#108=LINE('',#574,#132);
#109=LINE('',#577,#133);
#110=LINE('',#580,#134);
#111=LINE('',#582,#135);
#112=LINE('',#583,#136);
#113=LINE('',#586,#137);
#114=LINE('',#590,#138);
#115=LINE('',#594,#139);
#116=LINE('',#597,#140);
#117=LINE('',#611,#141);
#118=LINE('',#614,#142);
#119=LINE('',#617,#143);
#120=LINE('',#618,#144);
#121=LINE('',#621,#145);
#122=LINE('',#625,#146);
#123=LINE('',#626,#147);
#124=LINE('',#629,#148);
#125=LINE('',#656,#149);
#126=LINE('',#658,#150);
#127=VECTOR('',#441,1.);
#128=VECTOR('',#444,1.);
#129=VECTOR('',#447,33.);
#130=VECTOR('',#448,1.);
#131=VECTOR('',#449,33.);
#132=VECTOR('',#454,1.);
#133=VECTOR('',#457,1.);
#134=VECTOR('',#460,10.);
#135=VECTOR('',#461,1.);
#136=VECTOR('',#462,10.);
#137=VECTOR('',#465,46.);
#138=VECTOR('',#468,46.);
#139=VECTOR('',#471,10.);
#140=VECTOR('',#474,33.);
#141=VECTOR('',#491,1.);
#142=VECTOR('',#494,1.);
#143=VECTOR('',#497,1.);
#144=VECTOR('',#498,10.);
#145=VECTOR('',#501,1.);
#146=VECTOR('',#506,1.);
#147=VECTOR('',#507,46.);
#148=VECTOR('',#510,1.);
#149=VECTOR('',#547,46.);
#150=VECTOR('',#550,33.);
#151=CIRCLE('',#390,1.);
#152=CIRCLE('',#391,1.);
#153=CIRCLE('',#394,2.);
#154=CIRCLE('',#395,2.);
#155=CIRCLE('',#398,2.);
#156=CIRCLE('',#399,2.);
#157=CIRCLE('',#400,2.);
#158=CIRCLE('',#401,2.);
#159=CIRCLE('',#402,2.4);
#160=CIRCLE('',#403,2.4);
#161=CIRCLE('',#404,2.4);
#162=CIRCLE('',#405,2.4);
#163=CIRCLE('',#407,2.);
#164=CIRCLE('',#409,2.);
#165=CIRCLE('',#412,2.);
#166=CIRCLE('',#415,2.);
#167=CIRCLE('',#417,4.1);
#168=CIRCLE('',#418,2.4);
#169=CIRCLE('',#421,4.1);
#170=CIRCLE('',#422,2.4);
#171=CIRCLE('',#425,4.1);
#172=CIRCLE('',#426,2.4);
#173=CIRCLE('',#429,4.1);
#174=CIRCLE('',#430,2.4);
#175=VERTEX_POINT('',#555);
#176=VERTEX_POINT('',#556);
#177=VERTEX_POINT('',#558);
#178=VERTEX_POINT('',#560);
#179=VERTEX_POINT('',#564);
#180=VERTEX_POINT('',#566);
#181=VERTEX_POINT('',#570);
#182=VERTEX_POINT('',#571);
#183=VERTEX_POINT('',#573);
#184=VERTEX_POINT('',#575);
#185=VERTEX_POINT('',#579);
#186=VERTEX_POINT('',#581);
#187=VERTEX_POINT('',#585);
#188=VERTEX_POINT('',#587);
#189=VERTEX_POINT('',#589);
#190=VERTEX_POINT('',#591);
#191=VERTEX_POINT('',#593);
#192=VERTEX_POINT('',#595);
#193=VERTEX_POINT('',#599);
#194=VERTEX_POINT('',#601);
#195=VERTEX_POINT('',#603);
#196=VERTEX_POINT('',#605);
#197=VERTEX_POINT('',#610);
#198=VERTEX_POINT('',#612);
#199=VERTEX_POINT('',#616);
#200=VERTEX_POINT('',#620);
#201=VERTEX_POINT('',#624);
#202=VERTEX_POINT('',#628);
#203=VERTEX_POINT('',#632);
#204=VERTEX_POINT('',#634);
#205=VERTEX_POINT('',#638);
#206=VERTEX_POINT('',#640);
#207=VERTEX_POINT('',#644);
#208=VERTEX_POINT('',#646);
#209=VERTEX_POINT('',#650);
#210=VERTEX_POINT('',#652);
#211=EDGE_CURVE('',#175,#176,#151,.T.);
#212=EDGE_CURVE('',#176,#177,#103,.T.);
#213=EDGE_CURVE('',#177,#178,#152,.T.);
#214=EDGE_CURVE('',#178,#175,#104,.T.);
#215=EDGE_CURVE('',#179,#176,#105,.T.);
#216=EDGE_CURVE('',#180,#179,#106,.T.);
#217=EDGE_CURVE('',#177,#180,#107,.T.);
#218=EDGE_CURVE('',#181,#182,#153,.T.);
#219=EDGE_CURVE('',#182,#183,#108,.T.);
#220=EDGE_CURVE('',#183,#184,#154,.T.);
#221=EDGE_CURVE('',#184,#181,#109,.T.);
#222=EDGE_CURVE('',#185,#182,#110,.T.);
#223=EDGE_CURVE('',#186,#185,#111,.T.);
#224=EDGE_CURVE('',#183,#186,#112,.T.);
#225=EDGE_CURVE('',#181,#187,#113,.T.);
#226=EDGE_CURVE('',#188,#187,#155,.T.);
#227=EDGE_CURVE('',#188,#189,#114,.T.);
#228=EDGE_CURVE('',#190,#189,#156,.T.);
#229=EDGE_CURVE('',#190,#191,#115,.T.);
#230=EDGE_CURVE('',#192,#191,#157,.T.);
#231=EDGE_CURVE('',#192,#178,#116,.T.);
#232=EDGE_CURVE('',#185,#180,#158,.T.);
#233=EDGE_CURVE('',#193,#193,#159,.T.);
#234=EDGE_CURVE('',#194,#194,#160,.T.);
#235=EDGE_CURVE('',#195,#195,#161,.T.);
#236=EDGE_CURVE('',#196,#196,#162,.T.);
#237=EDGE_CURVE('',#179,#186,#163,.T.);
#238=EDGE_CURVE('',#191,#197,#117,.T.);
#239=EDGE_CURVE('',#197,#198,#164,.T.);
#240=EDGE_CURVE('',#198,#192,#118,.T.);
#241=EDGE_CURVE('',#199,#190,#119,.T.);
#242=EDGE_CURVE('',#197,#199,#120,.T.);
#243=EDGE_CURVE('',#189,#200,#121,.T.);
#244=EDGE_CURVE('',#200,#199,#165,.T.);
#245=EDGE_CURVE('',#201,#188,#122,.T.);
#246=EDGE_CURVE('',#200,#201,#123,.T.);
#247=EDGE_CURVE('',#187,#202,#124,.T.);
#248=EDGE_CURVE('',#202,#201,#166,.T.);
#249=EDGE_CURVE('',#203,#203,#167,.T.);
#250=EDGE_CURVE('',#204,#204,#168,.T.);
#251=EDGE_CURVE('',#205,#205,#169,.T.);
#252=EDGE_CURVE('',#206,#206,#170,.T.);
#253=EDGE_CURVE('',#207,#207,#171,.T.);
#254=EDGE_CURVE('',#208,#208,#172,.T.);
#255=EDGE_CURVE('',#209,#209,#173,.T.);
#256=EDGE_CURVE('',#210,#210,#174,.T.);
#257=EDGE_CURVE('',#202,#184,#125,.T.);
#258=EDGE_CURVE('',#175,#198,#126,.T.);
#259=ORIENTED_EDGE('',*,*,#211,.T.);
#260=ORIENTED_EDGE('',*,*,#212,.T.);
#261=ORIENTED_EDGE('',*,*,#213,.T.);
#262=ORIENTED_EDGE('',*,*,#214,.T.);
#263=ORIENTED_EDGE('',*,*,#212,.F.);
#264=ORIENTED_EDGE('',*,*,#215,.F.);
#265=ORIENTED_EDGE('',*,*,#216,.F.);
#266=ORIENTED_EDGE('',*,*,#217,.F.);
#267=ORIENTED_EDGE('',*,*,#218,.T.);
#268=ORIENTED_EDGE('',*,*,#219,.T.);
#269=ORIENTED_EDGE('',*,*,#220,.T.);
#270=ORIENTED_EDGE('',*,*,#221,.T.);
#271=ORIENTED_EDGE('',*,*,#219,.F.);
#272=ORIENTED_EDGE('',*,*,#222,.F.);
#273=ORIENTED_EDGE('',*,*,#223,.F.);
#274=ORIENTED_EDGE('',*,*,#224,.F.);
#275=ORIENTED_EDGE('',*,*,#218,.F.);
#276=ORIENTED_EDGE('',*,*,#225,.T.);
#277=ORIENTED_EDGE('',*,*,#226,.F.);
#278=ORIENTED_EDGE('',*,*,#227,.T.);
#279=ORIENTED_EDGE('',*,*,#228,.F.);
#280=ORIENTED_EDGE('',*,*,#229,.T.);
#281=ORIENTED_EDGE('',*,*,#230,.F.);
#282=ORIENTED_EDGE('',*,*,#231,.T.);
#283=ORIENTED_EDGE('',*,*,#213,.F.);
#284=ORIENTED_EDGE('',*,*,#217,.T.);
#285=ORIENTED_EDGE('',*,*,#232,.F.);
#286=ORIENTED_EDGE('',*,*,#222,.T.);
#287=ORIENTED_EDGE('',*,*,#233,.T.);
#288=ORIENTED_EDGE('',*,*,#234,.T.);
#289=ORIENTED_EDGE('',*,*,#235,.T.);
#290=ORIENTED_EDGE('',*,*,#236,.T.);
#291=ORIENTED_EDGE('',*,*,#232,.T.);
#292=ORIENTED_EDGE('',*,*,#216,.T.);
#293=ORIENTED_EDGE('',*,*,#237,.T.);
#294=ORIENTED_EDGE('',*,*,#223,.T.);
#295=ORIENTED_EDGE('',*,*,#230,.T.);
#296=ORIENTED_EDGE('',*,*,#238,.T.);
#297=ORIENTED_EDGE('',*,*,#239,.T.);
#298=ORIENTED_EDGE('',*,*,#240,.T.);
#299=ORIENTED_EDGE('',*,*,#238,.F.);
#300=ORIENTED_EDGE('',*,*,#229,.F.);
#301=ORIENTED_EDGE('',*,*,#241,.F.);
#302=ORIENTED_EDGE('',*,*,#242,.F.);
#303=ORIENTED_EDGE('',*,*,#228,.T.);
#304=ORIENTED_EDGE('',*,*,#243,.T.);
#305=ORIENTED_EDGE('',*,*,#244,.T.);
#306=ORIENTED_EDGE('',*,*,#241,.T.);
#307=ORIENTED_EDGE('',*,*,#243,.F.);
#308=ORIENTED_EDGE('',*,*,#227,.F.);
#309=ORIENTED_EDGE('',*,*,#245,.F.);
#310=ORIENTED_EDGE('',*,*,#246,.F.);
#311=ORIENTED_EDGE('',*,*,#226,.T.);
#312=ORIENTED_EDGE('',*,*,#247,.T.);
#313=ORIENTED_EDGE('',*,*,#248,.T.);
#314=ORIENTED_EDGE('',*,*,#245,.T.);
#315=ORIENTED_EDGE('',*,*,#249,.F.);
#316=ORIENTED_EDGE('',*,*,#250,.F.);
#317=ORIENTED_EDGE('',*,*,#236,.F.);
#318=ORIENTED_EDGE('',*,*,#250,.T.);
#319=ORIENTED_EDGE('',*,*,#251,.F.);
#320=ORIENTED_EDGE('',*,*,#252,.F.);
#321=ORIENTED_EDGE('',*,*,#235,.F.);
#322=ORIENTED_EDGE('',*,*,#252,.T.);
#323=ORIENTED_EDGE('',*,*,#253,.F.);
#324=ORIENTED_EDGE('',*,*,#254,.F.);
#325=ORIENTED_EDGE('',*,*,#234,.F.);
#326=ORIENTED_EDGE('',*,*,#254,.T.);
#327=ORIENTED_EDGE('',*,*,#255,.F.);
#328=ORIENTED_EDGE('',*,*,#256,.F.);
#329=ORIENTED_EDGE('',*,*,#233,.F.);
#330=ORIENTED_EDGE('',*,*,#256,.T.);
#331=ORIENTED_EDGE('',*,*,#221,.F.);
#332=ORIENTED_EDGE('',*,*,#257,.F.);
#333=ORIENTED_EDGE('',*,*,#247,.F.);
#334=ORIENTED_EDGE('',*,*,#225,.F.);
#335=ORIENTED_EDGE('',*,*,#214,.F.);
#336=ORIENTED_EDGE('',*,*,#231,.F.);
#337=ORIENTED_EDGE('',*,*,#240,.F.);
#338=ORIENTED_EDGE('',*,*,#258,.F.);
#339=ORIENTED_EDGE('',*,*,#220,.F.);
#340=ORIENTED_EDGE('',*,*,#224,.T.);
#341=ORIENTED_EDGE('',*,*,#237,.F.);
#342=ORIENTED_EDGE('',*,*,#215,.T.);
#343=ORIENTED_EDGE('',*,*,#211,.F.);
#344=ORIENTED_EDGE('',*,*,#258,.T.);
#345=ORIENTED_EDGE('',*,*,#239,.F.);
#346=ORIENTED_EDGE('',*,*,#242,.T.);
#347=ORIENTED_EDGE('',*,*,#244,.F.);
#348=ORIENTED_EDGE('',*,*,#246,.T.);
#349=ORIENTED_EDGE('',*,*,#248,.F.);
#350=ORIENTED_EDGE('',*,*,#257,.T.);
#351=ORIENTED_EDGE('',*,*,#249,.T.);
#352=ORIENTED_EDGE('',*,*,#251,.T.);
#353=ORIENTED_EDGE('',*,*,#253,.T.);
#354=ORIENTED_EDGE('',*,*,#255,.T.);
#355=CYLINDRICAL_SURFACE('',#389,1.);
#356=CYLINDRICAL_SURFACE('',#393,2.);
#357=CYLINDRICAL_SURFACE('',#406,2.);
#358=CYLINDRICAL_SURFACE('',#408,2.);
#359=CYLINDRICAL_SURFACE('',#411,2.);
#360=CYLINDRICAL_SURFACE('',#414,2.);
#361=CYLINDRICAL_SURFACE('',#419,2.4);
#362=CYLINDRICAL_SURFACE('',#423,2.4);
#363=CYLINDRICAL_SURFACE('',#427,2.4);
#364=CYLINDRICAL_SURFACE('',#431,2.4);
#365=ADVANCED_FACE('',(#43),#355,.F.);
#366=ADVANCED_FACE('',(#44),#35,.T.);
#367=ADVANCED_FACE('',(#45),#356,.T.);
#368=ADVANCED_FACE('',(#46),#36,.T.);
#369=ADVANCED_FACE('',(#47,#19,#20,#21,#22),#37,.T.);
#370=ADVANCED_FACE('',(#48),#357,.T.);
#371=ADVANCED_FACE('',(#49),#358,.T.);
#372=ADVANCED_FACE('',(#50),#38,.T.);
#373=ADVANCED_FACE('',(#51),#359,.T.);
#374=ADVANCED_FACE('',(#52),#39,.T.);
#375=ADVANCED_FACE('',(#53),#360,.T.);
#376=ADVANCED_FACE('',(#54,#23),#15,.F.);
#377=ADVANCED_FACE('',(#55,#24),#361,.F.);
#378=ADVANCED_FACE('',(#56,#25),#16,.F.);
#379=ADVANCED_FACE('',(#57,#26),#362,.F.);
#380=ADVANCED_FACE('',(#58,#27),#17,.F.);
#381=ADVANCED_FACE('',(#59,#28),#363,.F.);
#382=ADVANCED_FACE('',(#60,#29),#18,.F.);
#383=ADVANCED_FACE('',(#61,#30),#364,.F.);
#384=ADVANCED_FACE('',(#62),#40,.T.);
#385=ADVANCED_FACE('',(#63),#41,.T.);
#386=ADVANCED_FACE('',(#64,#31,#32,#33,#34),#42,.T.);
#387=CLOSED_SHELL('',(#365,#366,#367,#368,#369,#370,#371,#372,#373,#374,
#375,#376,#377,#378,#379,#380,#381,#382,#383,#384,#385,#386));
#388=AXIS2_PLACEMENT_3D('placement',#553,#435,#436);
#389=AXIS2_PLACEMENT_3D('',#554,#437,#438);
#390=AXIS2_PLACEMENT_3D('',#557,#439,#440);
#391=AXIS2_PLACEMENT_3D('',#561,#442,#443);
#392=AXIS2_PLACEMENT_3D('',#563,#445,#446);
#393=AXIS2_PLACEMENT_3D('',#569,#450,#451);
#394=AXIS2_PLACEMENT_3D('',#572,#452,#453);
#395=AXIS2_PLACEMENT_3D('',#576,#455,#456);
#396=AXIS2_PLACEMENT_3D('',#578,#458,#459);
#397=AXIS2_PLACEMENT_3D('',#584,#463,#464);
#398=AXIS2_PLACEMENT_3D('',#588,#466,#467);
#399=AXIS2_PLACEMENT_3D('',#592,#469,#470);
#400=AXIS2_PLACEMENT_3D('',#596,#472,#473);
#401=AXIS2_PLACEMENT_3D('',#598,#475,#476);
#402=AXIS2_PLACEMENT_3D('',#600,#477,#478);
#403=AXIS2_PLACEMENT_3D('',#602,#479,#480);
#404=AXIS2_PLACEMENT_3D('',#604,#481,#482);
#405=AXIS2_PLACEMENT_3D('',#606,#483,#484);
#406=AXIS2_PLACEMENT_3D('',#607,#485,#486);
#407=AXIS2_PLACEMENT_3D('',#608,#487,#488);
#408=AXIS2_PLACEMENT_3D('',#609,#489,#490);
#409=AXIS2_PLACEMENT_3D('',#613,#492,#493);
#410=AXIS2_PLACEMENT_3D('',#615,#495,#496);
#411=AXIS2_PLACEMENT_3D('',#619,#499,#500);
#412=AXIS2_PLACEMENT_3D('',#622,#502,#503);
#413=AXIS2_PLACEMENT_3D('',#623,#504,#505);
#414=AXIS2_PLACEMENT_3D('',#627,#508,#509);
#415=AXIS2_PLACEMENT_3D('',#630,#511,#512);
#416=AXIS2_PLACEMENT_3D('',#631,#513,#514);
#417=AXIS2_PLACEMENT_3D('',#633,#515,#516);
#418=AXIS2_PLACEMENT_3D('',#635,#517,#518);
#419=AXIS2_PLACEMENT_3D('',#636,#519,#520);
#420=AXIS2_PLACEMENT_3D('',#637,#521,#522);
#421=AXIS2_PLACEMENT_3D('',#639,#523,#524);
#422=AXIS2_PLACEMENT_3D('',#641,#525,#526);
#423=AXIS2_PLACEMENT_3D('',#642,#527,#528);
#424=AXIS2_PLACEMENT_3D('',#643,#529,#530);
#425=AXIS2_PLACEMENT_3D('',#645,#531,#532);
#426=AXIS2_PLACEMENT_3D('',#647,#533,#534);
#427=AXIS2_PLACEMENT_3D('',#648,#535,#536);
#428=AXIS2_PLACEMENT_3D('',#649,#537,#538);
#429=AXIS2_PLACEMENT_3D('',#651,#539,#540);
#430=AXIS2_PLACEMENT_3D('',#653,#541,#542);
#431=AXIS2_PLACEMENT_3D('',#654,#543,#544);
#432=AXIS2_PLACEMENT_3D('',#655,#545,#546);
#433=AXIS2_PLACEMENT_3D('',#657,#548,#549);
#434=AXIS2_PLACEMENT_3D('',#659,#551,#552);
#435=DIRECTION('axis',(0.,0.,1.));
#436=DIRECTION('refdir',(1.,0.,0.));
#437=DIRECTION('center_axis',(0.,-1.,0.));
#438=DIRECTION('ref_axis',(0.707106781186546,0.,-0.707106781186549));
#439=DIRECTION('center_axis',(0.,1.,0.));
#440=DIRECTION('ref_axis',(0.707106781186546,0.,-0.707106781186549));
#441=DIRECTION('',(0.,-1.,0.));
#442=DIRECTION('center_axis',(0.,-1.,0.));
#443=DIRECTION('ref_axis',(0.707106781186546,0.,-0.707106781186549));
#444=DIRECTION('',(0.,1.,0.));
#445=DIRECTION('center_axis',(3.70074341541719E-16,0.,1.));
#446=DIRECTION('ref_axis',(-1.,0.,7.105427357601E-16));
#447=DIRECTION('',(1.,0.,-3.70074341541719E-16));
#448=DIRECTION('',(0.,1.,0.));
#449=DIRECTION('',(-1.,0.,3.70074341541719E-16));
#450=DIRECTION('center_axis',(0.,-1.,0.));
#451=DIRECTION('ref_axis',(-0.707106781186544,0.,-0.707106781186551));
#452=DIRECTION('center_axis',(0.,1.,0.));
#453=DIRECTION('ref_axis',(-0.707106781186544,0.,-0.707106781186551));
#454=DIRECTION('',(0.,1.,0.));
#455=DIRECTION('center_axis',(0.,-1.,0.));
#456=DIRECTION('ref_axis',(-0.707106781186544,0.,-0.707106781186551));
#457=DIRECTION('',(0.,-1.,0.));
#458=DIRECTION('center_axis',(-1.,0.,0.));
#459=DIRECTION('ref_axis',(0.,0.,-1.));
#460=DIRECTION('',(0.,0.,-1.));
#461=DIRECTION('',(0.,-1.,0.));
#462=DIRECTION('',(0.,0.,1.));
#463=DIRECTION('center_axis',(0.,-1.,0.));
#464=DIRECTION('ref_axis',(0.,0.,-1.));
#465=DIRECTION('',(1.,0.,-3.5527136788005E-16));
#466=DIRECTION('center_axis',(0.,1.,0.));
#467=DIRECTION('ref_axis',(0.707106781186546,0.,-0.707106781186549));
#468=DIRECTION('',(0.,0.,1.));
#469=DIRECTION('center_axis',(0.,1.,0.));
#470=DIRECTION('ref_axis',(0.707106781186547,0.,0.707106781186548));
#471=DIRECTION('',(-1.,0.,6.12323399573677E-16));
#472=DIRECTION('center_axis',(0.,1.,0.));
#473=DIRECTION('ref_axis',(-0.707106781186547,0.,0.707106781186548));
#474=DIRECTION('',(-4.31753398465339E-16,0.,-1.));
#475=DIRECTION('center_axis',(0.,1.,0.));
#476=DIRECTION('ref_axis',(-0.707106781186548,0.,0.707106781186548));
#477=DIRECTION('center_axis',(0.,1.,0.));
#478=DIRECTION('ref_axis',(1.,0.,0.));
#479=DIRECTION('center_axis',(0.,1.,0.));
#480=DIRECTION('ref_axis',(1.,0.,0.));
#481=DIRECTION('center_axis',(0.,1.,0.));
#482=DIRECTION('ref_axis',(1.,0.,0.));
#483=DIRECTION('center_axis',(0.,1.,0.));
#484=DIRECTION('ref_axis',(1.,0.,0.));
#485=DIRECTION('center_axis',(0.,-1.,0.));
#486=DIRECTION('ref_axis',(-0.707106781186548,0.,0.707106781186548));
#487=DIRECTION('center_axis',(0.,-1.,0.));
#488=DIRECTION('ref_axis',(-0.707106781186548,0.,0.707106781186548));
#489=DIRECTION('center_axis',(0.,-1.,0.));
#490=DIRECTION('ref_axis',(-0.707106781186547,0.,0.707106781186548));
#491=DIRECTION('',(0.,1.,0.));
#492=DIRECTION('center_axis',(0.,-1.,0.));
#493=DIRECTION('ref_axis',(-0.707106781186547,0.,0.707106781186548));
#494=DIRECTION('',(0.,-1.,0.));
#495=DIRECTION('center_axis',(6.12323399573677E-16,0.,1.));
#496=DIRECTION('ref_axis',(-1.,0.,6.12323399573677E-16));
#497=DIRECTION('',(0.,-1.,0.));
#498=DIRECTION('',(1.,0.,-6.12323399573677E-16));
#499=DIRECTION('center_axis',(0.,-1.,0.));
#500=DIRECTION('ref_axis',(0.707106781186547,0.,0.707106781186548));
#501=DIRECTION('',(0.,1.,0.));
#502=DIRECTION('center_axis',(0.,-1.,0.));
#503=DIRECTION('ref_axis',(0.707106781186547,0.,0.707106781186548));
#504=DIRECTION('center_axis',(1.,0.,0.));
#505=DIRECTION('ref_axis',(0.,0.,1.));
#506=DIRECTION('',(0.,-1.,0.));
#507=DIRECTION('',(0.,0.,-1.));
#508=DIRECTION('center_axis',(0.,-1.,0.));
#509=DIRECTION('ref_axis',(0.707106781186546,0.,-0.707106781186549));
#510=DIRECTION('',(0.,1.,0.));
#511=DIRECTION('center_axis',(0.,-1.,0.));
#512=DIRECTION('ref_axis',(0.707106781186546,0.,-0.707106781186549));
#513=DIRECTION('center_axis',(0.,1.,0.));
#514=DIRECTION('ref_axis',(1.,0.,0.));
#515=DIRECTION('center_axis',(0.,-1.,0.));
#516=DIRECTION('ref_axis',(1.,0.,0.));
#517=DIRECTION('center_axis',(0.,1.,0.));
#518=DIRECTION('ref_axis',(1.,0.,0.));
#519=DIRECTION('center_axis',(0.,1.,0.));
#520=DIRECTION('ref_axis',(1.,0.,0.));
#521=DIRECTION('center_axis',(0.,1.,0.));
#522=DIRECTION('ref_axis',(1.,0.,0.));
#523=DIRECTION('center_axis',(0.,-1.,0.));
#524=DIRECTION('ref_axis',(1.,0.,0.));
#525=DIRECTION('center_axis',(0.,1.,0.));
#526=DIRECTION('ref_axis',(1.,0.,0.));
#527=DIRECTION('center_axis',(0.,1.,0.));
#528=DIRECTION('ref_axis',(1.,0.,0.));
#529=DIRECTION('center_axis',(0.,1.,0.));
#530=DIRECTION('ref_axis',(1.,0.,0.));
#531=DIRECTION('center_axis',(0.,-1.,0.));
#532=DIRECTION('ref_axis',(1.,0.,0.));
#533=DIRECTION('center_axis',(0.,1.,0.));
#534=DIRECTION('ref_axis',(1.,0.,0.));
#535=DIRECTION('center_axis',(0.,1.,0.));
#536=DIRECTION('ref_axis',(1.,0.,0.));
#537=DIRECTION('center_axis',(0.,1.,0.));
#538=DIRECTION('ref_axis',(1.,0.,0.));
#539=DIRECTION('center_axis',(0.,-1.,0.));
#540=DIRECTION('ref_axis',(1.,0.,0.));
#541=DIRECTION('center_axis',(0.,1.,0.));
#542=DIRECTION('ref_axis',(1.,0.,0.));
#543=DIRECTION('center_axis',(0.,1.,0.));
#544=DIRECTION('ref_axis',(1.,0.,0.));
#545=DIRECTION('center_axis',(-3.5527136788005E-16,0.,-1.));
#546=DIRECTION('ref_axis',(1.,0.,0.));
#547=DIRECTION('',(-1.,0.,3.5527136788005E-16));
#548=DIRECTION('center_axis',(-1.,0.,4.31753398465339E-16));
#549=DIRECTION('ref_axis',(-3.5527136788005E-16,0.,-1.));
#550=DIRECTION('',(4.31753398465339E-16,0.,1.));
#551=DIRECTION('center_axis',(0.,1.,0.));
#552=DIRECTION('ref_axis',(0.,0.,1.));
#553=CARTESIAN_POINT('',(0.,0.,0.));
#554=CARTESIAN_POINT('Origin',(-15.,0.,-35.));
#555=CARTESIAN_POINT('',(-14.,0.,-35.));
#556=CARTESIAN_POINT('',(-15.,0.,-36.));
#557=CARTESIAN_POINT('Origin',(-15.,0.,-35.));
#558=CARTESIAN_POINT('',(-15.,-1.,-36.));
#559=CARTESIAN_POINT('',(-15.,0.,-36.));
#560=CARTESIAN_POINT('',(-14.,-1.,-35.));
#561=CARTESIAN_POINT('Origin',(-15.,-1.,-35.));
#562=CARTESIAN_POINT('',(-14.,0.,-35.));
#563=CARTESIAN_POINT('Origin',(-14.,0.,-36.));
#564=CARTESIAN_POINT('',(-48.,0.,-36.));
#565=CARTESIAN_POINT('',(-50.,0.,-36.));
#566=CARTESIAN_POINT('',(-48.,-1.,-36.));
#567=CARTESIAN_POINT('',(-48.,0.,-36.));
#568=CARTESIAN_POINT('',(-50.,-1.,-36.));
#569=CARTESIAN_POINT('Origin',(-48.,0.,-48.));
#570=CARTESIAN_POINT('',(-48.,-1.,-50.));
#571=CARTESIAN_POINT('',(-50.,-1.,-48.));
#572=CARTESIAN_POINT('Origin',(-48.,-1.,-48.));
#573=CARTESIAN_POINT('',(-50.,0.,-48.));
#574=CARTESIAN_POINT('',(-50.,0.,-48.));
#575=CARTESIAN_POINT('',(-48.,0.,-50.));
#576=CARTESIAN_POINT('Origin',(-48.,0.,-48.));
#577=CARTESIAN_POINT('',(-48.,0.,-50.));
#578=CARTESIAN_POINT('Origin',(-50.,0.,-36.));
#579=CARTESIAN_POINT('',(-50.,-1.,-38.));
#580=CARTESIAN_POINT('',(-50.,-1.,-50.));
#581=CARTESIAN_POINT('',(-50.,0.,-38.));
#582=CARTESIAN_POINT('',(-50.,0.,-38.));
#583=CARTESIAN_POINT('',(-50.,0.,-50.));
#584=CARTESIAN_POINT('Origin',(-18.52,-1.,-31.48));
#585=CARTESIAN_POINT('',(-2.,-1.,-50.));
#586=CARTESIAN_POINT('',(0.,-1.,-50.));
#587=CARTESIAN_POINT('',(0.,-1.,-48.));
#588=CARTESIAN_POINT('Origin',(-2.,-1.,-48.));
#589=CARTESIAN_POINT('',(0.,-1.,-2.));
#590=CARTESIAN_POINT('',(0.,-1.,0.));
#591=CARTESIAN_POINT('',(-2.,-1.,1.22464679914735E-15));
#592=CARTESIAN_POINT('Origin',(-2.,-1.,-2.));
#593=CARTESIAN_POINT('',(-12.,-1.,7.34788079488412E-15));
#594=CARTESIAN_POINT('',(-14.,-1.,8.57252759403147E-15));
#595=CARTESIAN_POINT('',(-14.,-1.,-1.99999999999999));
#596=CARTESIAN_POINT('Origin',(-12.,-1.,-1.99999999999999));
#597=CARTESIAN_POINT('',(-14.,-1.,-36.));
#598=CARTESIAN_POINT('Origin',(-48.,-1.,-38.));
#599=CARTESIAN_POINT('',(-9.4,-1.,-7.));
#600=CARTESIAN_POINT('Origin',(-7.,-1.,-7.));
#601=CARTESIAN_POINT('',(-21.4,-1.,-43.));
#602=CARTESIAN_POINT('Origin',(-19.,-1.,-43.));
#603=CARTESIAN_POINT('',(-45.4,-1.,-43.));
#604=CARTESIAN_POINT('Origin',(-43.,-1.,-43.));
#605=CARTESIAN_POINT('',(-9.40000000000002,-1.,-31.));
#606=CARTESIAN_POINT('Origin',(-7.00000000000002,-1.,-31.));
#607=CARTESIAN_POINT('Origin',(-48.,0.,-38.));
#608=CARTESIAN_POINT('Origin',(-48.,0.,-38.));
#609=CARTESIAN_POINT('Origin',(-12.,0.,-1.99999999999999));
#610=CARTESIAN_POINT('',(-12.,0.,7.34788079488412E-15));
#611=CARTESIAN_POINT('',(-12.,0.,7.21644966006352E-15));
#612=CARTESIAN_POINT('',(-14.,0.,-1.99999999999999));
#613=CARTESIAN_POINT('Origin',(-12.,0.,-1.99999999999999));
#614=CARTESIAN_POINT('',(-14.,0.,-1.99999999999999));
#615=CARTESIAN_POINT('Origin',(0.,0.,9.86076131526265E-31));
#616=CARTESIAN_POINT('',(-2.,0.,1.22464679914735E-15));
#617=CARTESIAN_POINT('',(-2.,0.,1.11022302462516E-15));
#618=CARTESIAN_POINT('',(-14.,0.,8.57252759403147E-15));
#619=CARTESIAN_POINT('Origin',(-2.,0.,-2.));
#620=CARTESIAN_POINT('',(0.,0.,-2.));
#621=CARTESIAN_POINT('',(0.,0.,-2.));
#622=CARTESIAN_POINT('Origin',(-2.,0.,-2.));
#623=CARTESIAN_POINT('Origin',(0.,0.,-50.));
#624=CARTESIAN_POINT('',(0.,0.,-48.));
#625=CARTESIAN_POINT('',(0.,0.,-48.));
#626=CARTESIAN_POINT('',(0.,0.,0.));
#627=CARTESIAN_POINT('Origin',(-2.,0.,-48.));
#628=CARTESIAN_POINT('',(-2.,0.,-50.));
#629=CARTESIAN_POINT('',(-2.,0.,-50.));
#630=CARTESIAN_POINT('Origin',(-2.,0.,-48.));
#631=CARTESIAN_POINT('Origin',(-7.00000000000002,-0.490747728811182,-31.));
#632=CARTESIAN_POINT('',(-2.90000000000002,0.,-31.));
#633=CARTESIAN_POINT('Origin',(-7.00000000000002,0.,-31.));
#634=CARTESIAN_POINT('',(-4.60000000000002,-0.981495457622364,-31.));
#635=CARTESIAN_POINT('Origin',(-7.00000000000002,-0.981495457622364,-31.));
#636=CARTESIAN_POINT('Origin',(-7.00000000000002,-4.,-31.));
#637=CARTESIAN_POINT('Origin',(-43.,-0.490747728811182,-43.));
#638=CARTESIAN_POINT('',(-38.9,0.,-43.));
#639=CARTESIAN_POINT('Origin',(-43.,0.,-43.));
#640=CARTESIAN_POINT('',(-40.6,-0.981495457622364,-43.));
#641=CARTESIAN_POINT('Origin',(-43.,-0.981495457622364,-43.));
#642=CARTESIAN_POINT('Origin',(-43.,-4.,-43.));
#643=CARTESIAN_POINT('Origin',(-19.,-0.490747728811182,-43.));
#644=CARTESIAN_POINT('',(-14.9,0.,-43.));
#645=CARTESIAN_POINT('Origin',(-19.,0.,-43.));
#646=CARTESIAN_POINT('',(-16.6,-0.981495457622364,-43.));
#647=CARTESIAN_POINT('Origin',(-19.,-0.981495457622364,-43.));
#648=CARTESIAN_POINT('Origin',(-19.,-4.,-43.));
#649=CARTESIAN_POINT('Origin',(-7.,-0.490747728811182,-7.));
#650=CARTESIAN_POINT('',(-2.9,0.,-7.));
#651=CARTESIAN_POINT('Origin',(-7.,0.,-7.));
#652=CARTESIAN_POINT('',(-4.6,-0.981495457622364,-7.));
#653=CARTESIAN_POINT('Origin',(-7.,-0.981495457622364,-7.));
#654=CARTESIAN_POINT('Origin',(-7.,-4.,-7.));
#655=CARTESIAN_POINT('Origin',(-50.,0.,-50.));
#656=CARTESIAN_POINT('',(0.,0.,-50.));
#657=CARTESIAN_POINT('Origin',(-14.,0.,8.88178419700125E-15));
#658=CARTESIAN_POINT('',(-14.,0.,-36.));
#659=CARTESIAN_POINT('Origin',(-18.52,0.,-31.48));
#660=UNCERTAINTY_MEASURE_WITH_UNIT(LENGTH_MEASURE(0.01),#664,
'DISTANCE_ACCURACY_VALUE',
'Maximum model space distance between geometric entities at asserted c
onnectivities');
#661=UNCERTAINTY_MEASURE_WITH_UNIT(LENGTH_MEASURE(1.E-6),#664,
'DISTANCE_ACCURACY_VALUE',
'Maximum model space distance between geometric entities at asserted c
onnectivities');
#662=(
GEOMETRIC_REPRESENTATION_CONTEXT(3)
GLOBAL_UNCERTAINTY_ASSIGNED_CONTEXT((#660))
GLOBAL_UNIT_ASSIGNED_CONTEXT((#664,#667,#665))
REPRESENTATION_CONTEXT('','3D')
);
#663=(
GEOMETRIC_REPRESENTATION_CONTEXT(3)
GLOBAL_UNCERTAINTY_ASSIGNED_CONTEXT((#661))
GLOBAL_UNIT_ASSIGNED_CONTEXT((#664,#667,#665))
REPRESENTATION_CONTEXT('','3D')
);
#664=(
LENGTH_UNIT()
NAMED_UNIT(*)
SI_UNIT(.MILLI.,.METRE.)
);
#665=(
NAMED_UNIT(*)
SI_UNIT($,.STERADIAN.)
SOLID_ANGLE_UNIT()
);
#666=DIMENSIONAL_EXPONENTS(0.,0.,0.,0.,0.,0.,0.);
#667=(
CONVERSION_BASED_UNIT('degree',#669)
NAMED_UNIT(#666)
PLANE_ANGLE_UNIT()
);
#668=(
NAMED_UNIT(*)
PLANE_ANGLE_UNIT()
SI_UNIT($,.RADIAN.)
);
#669=PLANE_ANGLE_MEASURE_WITH_UNIT(PLANE_ANGLE_MEASURE(0.01745329252),#668);
#670=SHAPE_DEFINITION_REPRESENTATION(#671,#672);
#671=PRODUCT_DEFINITION_SHAPE('',$,#674);
#672=SHAPE_REPRESENTATION('',(#388),#662);
#673=PRODUCT_DEFINITION_CONTEXT('part definition',#678,'design');
#674=PRODUCT_DEFINITION('S-AGS5050-L','S-AGS5050-L',#675,#673);
#675=PRODUCT_DEFINITION_FORMATION('',$,#680);
#676=PRODUCT_RELATED_PRODUCT_CATEGORY('S-AGS5050-L','S-AGS5050-L',(#680));
#677=APPLICATION_PROTOCOL_DEFINITION('international standard',
'automotive_design',2009,#678);
#678=APPLICATION_CONTEXT(
'Core Data for Automotive Mechanical Design Process');
#679=PRODUCT_CONTEXT('part definition',#678,'mechanical');
#680=PRODUCT('S-AGS5050-L','S-AGS5050-L',$,(#679));
#681=PRESENTATION_STYLE_ASSIGNMENT((#682));
#682=SURFACE_STYLE_USAGE(.BOTH.,#683);
#683=SURFACE_SIDE_STYLE($,(#684));
#684=SURFACE_STYLE_FILL_AREA(#685);
#685=FILL_AREA_STYLE($,(#686));
#686=FILL_AREA_STYLE_COLOUR($,#687);
#687=COLOUR_RGB('',1.,1.,1.);
ENDSEC;
END-ISO-10303-21;
