ISO-10303-21;
HEADER;
/* Generated by software containing ST-Developer
 * from STEP Tools, Inc. (www.steptools.com) 
 */

FILE_DESCRIPTION(
/* description */ (''),
/* implementation_level */ '2;1');

FILE_NAME(
/* name */ '\\\\SYNOLOGYNAS\\web\\db2\\PRM8-2\\\X2\B3C4BA74\X0\\\PRM8-
3_M.stp',
/* time_stamp */ '2023-05-05T16:29:28+09:00',
/* author */ ('user'),
/* organization */ (''),
/* preprocessor_version */ 'ST-DEVELOPER v15.6',
/* originating_system */ 'Autodesk Inventor 2015',
/* authorisation */ '');

FILE_SCHEMA (('AUTOMOTIVE_DESIGN { 1 0 10303 214 3 1 1 }'));
ENDSEC;

DATA;
#10=MECHANICAL_DESIGN_GEOMETRIC_PRESENTATION_REPRESENTATION('',(#23,#24),
#628);
#11=ITEM_DEFINED_TRANSFORMATION($,$,#341,#402);
#12=ITEM_DEFINED_TRANSFORMATION($,$,#371,#403);
#13=(
REPRESENTATION_RELATIONSHIP($,$,#643,#645)
REPRESENTATION_RELATIONSHIP_WITH_TRANSFORMATION(#11)
SHAPE_REPRESENTATION_RELATIONSHIP()
);
#14=(
REPRESENTATION_RELATIONSHIP($,$,#644,#645)
REPRESENTATION_RELATIONSHIP_WITH_TRANSFORMATION(#12)
SHAPE_REPRESENTATION_RELATIONSHIP()
);
#15=CONTEXT_DEPENDENT_SHAPE_REPRESENTATION(#13,#641);
#16=CONTEXT_DEPENDENT_SHAPE_REPRESENTATION(#14,#642);
#17=NEXT_ASSEMBLY_USAGE_OCCURRENCE('DR_PRM8-3-12:1',$,$,#649,#647,$);
#18=NEXT_ASSEMBLY_USAGE_OCCURRENCE('DR_PRM8-3-25:1',$,$,#649,#648,$);
#19=SHAPE_REPRESENTATION_RELATIONSHIP('SRR','None',#643,#21);
#20=SHAPE_REPRESENTATION_RELATIONSHIP('SRR','None',#644,#22);
#21=ADVANCED_BREP_SHAPE_REPRESENTATION($,(#25),#625);
#22=ADVANCED_BREP_SHAPE_REPRESENTATION($,(#26),#626);
#23=STYLED_ITEM('',(#662),#25);
#24=STYLED_ITEM('',(#662),#26);
#25=MANIFOLD_SOLID_BREP('\X2\C194B9ACB4DC\X0\1',#339);
#26=MANIFOLD_SOLID_BREP('\X2\C194B9ACB4DC\X0\1',#340);
#27=CONICAL_SURFACE('',#370,19.5,32.347443499442);
#28=CONICAL_SURFACE('',#400,19.5,32.347443499442);
#29=TOROIDAL_SURFACE('',#346,3.66495091486091,1.5);
#30=TOROIDAL_SURFACE('',#349,3.5857864376269,1.5);
#31=TOROIDAL_SURFACE('',#351,10.8350490851391,1.5);
#32=TOROIDAL_SURFACE('',#354,10.9142135623731,1.5);
#33=TOROIDAL_SURFACE('',#356,18.,1.5);
#34=TOROIDAL_SURFACE('',#363,17.9142135623731,1.5);
#35=TOROIDAL_SURFACE('',#376,3.66495091486091,1.5);
#36=TOROIDAL_SURFACE('',#379,3.5857864376269,1.5);
#37=TOROIDAL_SURFACE('',#381,10.8350490851391,1.5);
#38=TOROIDAL_SURFACE('',#384,10.9142135623731,1.5);
#39=TOROIDAL_SURFACE('',#386,18.,1.5);
#40=TOROIDAL_SURFACE('',#393,17.9142135623731,1.5);
#41=PLANE('',#345);
#42=PLANE('',#359);
#43=PLANE('',#365);
#44=PLANE('',#366);
#45=PLANE('',#367);
#46=PLANE('',#368);
#47=PLANE('',#375);
#48=PLANE('',#389);
#49=PLANE('',#395);
#50=PLANE('',#396);
#51=PLANE('',#397);
#52=PLANE('',#398);
#53=FACE_BOUND('',#110,.T.);
#54=FACE_BOUND('',#113,.T.);
#55=FACE_BOUND('',#115,.T.);
#56=FACE_BOUND('',#117,.T.);
#57=FACE_BOUND('',#119,.T.);
#58=FACE_BOUND('',#121,.T.);
#59=FACE_BOUND('',#123,.T.);
#60=FACE_BOUND('',#125,.T.);
#61=FACE_BOUND('',#127,.T.);
#62=FACE_BOUND('',#129,.T.);
#63=FACE_BOUND('',#131,.T.);
#64=FACE_BOUND('',#134,.T.);
#65=FACE_BOUND('',#136,.T.);
#66=FACE_BOUND('',#138,.T.);
#67=FACE_BOUND('',#141,.T.);
#68=FACE_BOUND('',#143,.T.);
#69=FACE_BOUND('',#145,.T.);
#70=FACE_BOUND('',#147,.T.);
#71=FACE_BOUND('',#149,.T.);
#72=FACE_BOUND('',#151,.T.);
#73=FACE_BOUND('',#153,.T.);
#74=FACE_BOUND('',#155,.T.);
#75=FACE_BOUND('',#157,.T.);
#76=FACE_BOUND('',#159,.T.);
#77=FACE_BOUND('',#162,.T.);
#78=FACE_BOUND('',#164,.T.);
#79=FACE_OUTER_BOUND('',#109,.T.);
#80=FACE_OUTER_BOUND('',#111,.T.);
#81=FACE_OUTER_BOUND('',#112,.T.);
#82=FACE_OUTER_BOUND('',#114,.T.);
#83=FACE_OUTER_BOUND('',#116,.T.);
#84=FACE_OUTER_BOUND('',#118,.T.);
#85=FACE_OUTER_BOUND('',#120,.T.);
#86=FACE_OUTER_BOUND('',#122,.T.);
#87=FACE_OUTER_BOUND('',#124,.T.);
#88=FACE_OUTER_BOUND('',#126,.T.);
#89=FACE_OUTER_BOUND('',#128,.T.);
#90=FACE_OUTER_BOUND('',#130,.T.);
#91=FACE_OUTER_BOUND('',#132,.T.);
#92=FACE_OUTER_BOUND('',#133,.T.);
#93=FACE_OUTER_BOUND('',#135,.T.);
#94=FACE_OUTER_BOUND('',#137,.T.);
#95=FACE_OUTER_BOUND('',#139,.T.);
#96=FACE_OUTER_BOUND('',#140,.T.);
#97=FACE_OUTER_BOUND('',#142,.T.);
#98=FACE_OUTER_BOUND('',#144,.T.);
#99=FACE_OUTER_BOUND('',#146,.T.);
#100=FACE_OUTER_BOUND('',#148,.T.);
#101=FACE_OUTER_BOUND('',#150,.T.);
#102=FACE_OUTER_BOUND('',#152,.T.);
#103=FACE_OUTER_BOUND('',#154,.T.);
#104=FACE_OUTER_BOUND('',#156,.T.);
#105=FACE_OUTER_BOUND('',#158,.T.);
#106=FACE_OUTER_BOUND('',#160,.T.);
#107=FACE_OUTER_BOUND('',#161,.T.);
#108=FACE_OUTER_BOUND('',#163,.T.);
#109=EDGE_LOOP('',(#249));
#110=EDGE_LOOP('',(#250));
#111=EDGE_LOOP('',(#251));
#112=EDGE_LOOP('',(#252));
#113=EDGE_LOOP('',(#253));
#114=EDGE_LOOP('',(#254));
#115=EDGE_LOOP('',(#255));
#116=EDGE_LOOP('',(#256));
#117=EDGE_LOOP('',(#257));
#118=EDGE_LOOP('',(#258));
#119=EDGE_LOOP('',(#259));
#120=EDGE_LOOP('',(#260));
#121=EDGE_LOOP('',(#261));
#122=EDGE_LOOP('',(#262));
#123=EDGE_LOOP('',(#263));
#124=EDGE_LOOP('',(#264));
#125=EDGE_LOOP('',(#265));
#126=EDGE_LOOP('',(#266));
#127=EDGE_LOOP('',(#267));
#128=EDGE_LOOP('',(#268));
#129=EDGE_LOOP('',(#269));
#130=EDGE_LOOP('',(#270));
#131=EDGE_LOOP('',(#271));
#132=EDGE_LOOP('',(#272));
#133=EDGE_LOOP('',(#273));
#134=EDGE_LOOP('',(#274));
#135=EDGE_LOOP('',(#275));
#136=EDGE_LOOP('',(#276));
#137=EDGE_LOOP('',(#277));
#138=EDGE_LOOP('',(#278));
#139=EDGE_LOOP('',(#279));
#140=EDGE_LOOP('',(#280));
#141=EDGE_LOOP('',(#281));
#142=EDGE_LOOP('',(#282));
#143=EDGE_LOOP('',(#283));
#144=EDGE_LOOP('',(#284));
#145=EDGE_LOOP('',(#285));
#146=EDGE_LOOP('',(#286));
#147=EDGE_LOOP('',(#287));
#148=EDGE_LOOP('',(#288));
#149=EDGE_LOOP('',(#289));
#150=EDGE_LOOP('',(#290));
#151=EDGE_LOOP('',(#291));
#152=EDGE_LOOP('',(#292));
#153=EDGE_LOOP('',(#293));
#154=EDGE_LOOP('',(#294));
#155=EDGE_LOOP('',(#295));
#156=EDGE_LOOP('',(#296));
#157=EDGE_LOOP('',(#297));
#158=EDGE_LOOP('',(#298));
#159=EDGE_LOOP('',(#299));
#160=EDGE_LOOP('',(#300));
#161=EDGE_LOOP('',(#301));
#162=EDGE_LOOP('',(#302));
#163=EDGE_LOOP('',(#303));
#164=EDGE_LOOP('',(#304));
#165=CIRCLE('',#343,4.);
#166=CIRCLE('',#344,4.);
#167=CIRCLE('',#347,2.25);
#168=CIRCLE('',#348,3.5857864376269);
#169=CIRCLE('',#350,5.);
#170=CIRCLE('',#352,12.25);
#171=CIRCLE('',#353,10.9142135623731);
#172=CIRCLE('',#355,9.5);
#173=CIRCLE('',#357,19.5);
#174=CIRCLE('',#358,18.);
#175=CIRCLE('',#360,17.9142135623731);
#176=CIRCLE('',#362,19.5);
#177=CIRCLE('',#364,16.5);
#178=CIRCLE('',#369,10.);
#179=CIRCLE('',#373,4.);
#180=CIRCLE('',#374,4.);
#181=CIRCLE('',#377,2.25);
#182=CIRCLE('',#378,3.5857864376269);
#183=CIRCLE('',#380,5.);
#184=CIRCLE('',#382,12.25);
#185=CIRCLE('',#383,10.9142135623731);
#186=CIRCLE('',#385,9.5);
#187=CIRCLE('',#387,19.5);
#188=CIRCLE('',#388,18.);
#189=CIRCLE('',#390,17.9142135623731);
#190=CIRCLE('',#392,19.5);
#191=CIRCLE('',#394,16.5);
#192=CIRCLE('',#399,10.);
#193=VERTEX_POINT('',#532);
#194=VERTEX_POINT('',#534);
#195=VERTEX_POINT('',#538);
#196=VERTEX_POINT('',#540);
#197=VERTEX_POINT('',#543);
#198=VERTEX_POINT('',#546);
#199=VERTEX_POINT('',#548);
#200=VERTEX_POINT('',#551);
#201=VERTEX_POINT('',#554);
#202=VERTEX_POINT('',#556);
#203=VERTEX_POINT('',#559);
#204=VERTEX_POINT('',#562);
#205=VERTEX_POINT('',#565);
#206=VERTEX_POINT('',#571);
#207=VERTEX_POINT('',#576);
#208=VERTEX_POINT('',#578);
#209=VERTEX_POINT('',#582);
#210=VERTEX_POINT('',#584);
#211=VERTEX_POINT('',#587);
#212=VERTEX_POINT('',#590);
#213=VERTEX_POINT('',#592);
#214=VERTEX_POINT('',#595);
#215=VERTEX_POINT('',#598);
#216=VERTEX_POINT('',#600);
#217=VERTEX_POINT('',#603);
#218=VERTEX_POINT('',#606);
#219=VERTEX_POINT('',#609);
#220=VERTEX_POINT('',#615);
#221=EDGE_CURVE('',#193,#193,#165,.T.);
#222=EDGE_CURVE('',#194,#194,#166,.T.);
#223=EDGE_CURVE('',#195,#195,#167,.T.);
#224=EDGE_CURVE('',#196,#196,#168,.T.);
#225=EDGE_CURVE('',#197,#197,#169,.T.);
#226=EDGE_CURVE('',#198,#198,#170,.T.);
#227=EDGE_CURVE('',#199,#199,#171,.T.);
#228=EDGE_CURVE('',#200,#200,#172,.T.);
#229=EDGE_CURVE('',#201,#201,#173,.T.);
#230=EDGE_CURVE('',#202,#202,#174,.T.);
#231=EDGE_CURVE('',#203,#203,#175,.T.);
#232=EDGE_CURVE('',#204,#204,#176,.T.);
#233=EDGE_CURVE('',#205,#205,#177,.T.);
#234=EDGE_CURVE('',#206,#206,#178,.T.);
#235=EDGE_CURVE('',#207,#207,#179,.T.);
#236=EDGE_CURVE('',#208,#208,#180,.T.);
#237=EDGE_CURVE('',#209,#209,#181,.T.);
#238=EDGE_CURVE('',#210,#210,#182,.T.);
#239=EDGE_CURVE('',#211,#211,#183,.T.);
#240=EDGE_CURVE('',#212,#212,#184,.T.);
#241=EDGE_CURVE('',#213,#213,#185,.T.);
#242=EDGE_CURVE('',#214,#214,#186,.T.);
#243=EDGE_CURVE('',#215,#215,#187,.T.);
#244=EDGE_CURVE('',#216,#216,#188,.T.);
#245=EDGE_CURVE('',#217,#217,#189,.T.);
#246=EDGE_CURVE('',#218,#218,#190,.T.);
#247=EDGE_CURVE('',#219,#219,#191,.T.);
#248=EDGE_CURVE('',#220,#220,#192,.T.);
#249=ORIENTED_EDGE('',*,*,#221,.F.);
#250=ORIENTED_EDGE('',*,*,#222,.F.);
#251=ORIENTED_EDGE('',*,*,#221,.T.);
#252=ORIENTED_EDGE('',*,*,#223,.T.);
#253=ORIENTED_EDGE('',*,*,#224,.F.);
#254=ORIENTED_EDGE('',*,*,#225,.T.);
#255=ORIENTED_EDGE('',*,*,#224,.T.);
#256=ORIENTED_EDGE('',*,*,#226,.T.);
#257=ORIENTED_EDGE('',*,*,#227,.F.);
#258=ORIENTED_EDGE('',*,*,#228,.T.);
#259=ORIENTED_EDGE('',*,*,#227,.T.);
#260=ORIENTED_EDGE('',*,*,#229,.T.);
#261=ORIENTED_EDGE('',*,*,#230,.T.);
#262=ORIENTED_EDGE('',*,*,#230,.F.);
#263=ORIENTED_EDGE('',*,*,#231,.F.);
#264=ORIENTED_EDGE('',*,*,#232,.F.);
#265=ORIENTED_EDGE('',*,*,#229,.F.);
#266=ORIENTED_EDGE('',*,*,#233,.T.);
#267=ORIENTED_EDGE('',*,*,#231,.T.);
#268=ORIENTED_EDGE('',*,*,#233,.F.);
#269=ORIENTED_EDGE('',*,*,#226,.F.);
#270=ORIENTED_EDGE('',*,*,#228,.F.);
#271=ORIENTED_EDGE('',*,*,#225,.F.);
#272=ORIENTED_EDGE('',*,*,#223,.F.);
#273=ORIENTED_EDGE('',*,*,#234,.F.);
#274=ORIENTED_EDGE('',*,*,#222,.T.);
#275=ORIENTED_EDGE('',*,*,#232,.T.);
#276=ORIENTED_EDGE('',*,*,#234,.T.);
#277=ORIENTED_EDGE('',*,*,#235,.F.);
#278=ORIENTED_EDGE('',*,*,#236,.F.);
#279=ORIENTED_EDGE('',*,*,#235,.T.);
#280=ORIENTED_EDGE('',*,*,#237,.T.);
#281=ORIENTED_EDGE('',*,*,#238,.F.);
#282=ORIENTED_EDGE('',*,*,#239,.T.);
#283=ORIENTED_EDGE('',*,*,#238,.T.);
#284=ORIENTED_EDGE('',*,*,#240,.T.);
#285=ORIENTED_EDGE('',*,*,#241,.F.);
#286=ORIENTED_EDGE('',*,*,#242,.T.);
#287=ORIENTED_EDGE('',*,*,#241,.T.);
#288=ORIENTED_EDGE('',*,*,#243,.T.);
#289=ORIENTED_EDGE('',*,*,#244,.T.);
#290=ORIENTED_EDGE('',*,*,#244,.F.);
#291=ORIENTED_EDGE('',*,*,#245,.F.);
#292=ORIENTED_EDGE('',*,*,#246,.F.);
#293=ORIENTED_EDGE('',*,*,#243,.F.);
#294=ORIENTED_EDGE('',*,*,#247,.T.);
#295=ORIENTED_EDGE('',*,*,#245,.T.);
#296=ORIENTED_EDGE('',*,*,#247,.F.);
#297=ORIENTED_EDGE('',*,*,#240,.F.);
#298=ORIENTED_EDGE('',*,*,#242,.F.);
#299=ORIENTED_EDGE('',*,*,#239,.F.);
#300=ORIENTED_EDGE('',*,*,#237,.F.);
#301=ORIENTED_EDGE('',*,*,#248,.F.);
#302=ORIENTED_EDGE('',*,*,#236,.T.);
#303=ORIENTED_EDGE('',*,*,#246,.T.);
#304=ORIENTED_EDGE('',*,*,#248,.T.);
#305=CYLINDRICAL_SURFACE('',#342,4.);
#306=CYLINDRICAL_SURFACE('',#361,19.5);
#307=CYLINDRICAL_SURFACE('',#372,4.);
#308=CYLINDRICAL_SURFACE('',#391,19.5);
#309=ADVANCED_FACE('',(#79,#53),#305,.T.);
#310=ADVANCED_FACE('',(#80),#41,.T.);
#311=ADVANCED_FACE('',(#81,#54),#29,.T.);
#312=ADVANCED_FACE('',(#82,#55),#30,.T.);
#313=ADVANCED_FACE('',(#83,#56),#31,.T.);
#314=ADVANCED_FACE('',(#84,#57),#32,.T.);
#315=ADVANCED_FACE('',(#85,#58),#33,.T.);
#316=ADVANCED_FACE('',(#86,#59),#42,.F.);
#317=ADVANCED_FACE('',(#87,#60),#306,.T.);
#318=ADVANCED_FACE('',(#88,#61),#34,.T.);
#319=ADVANCED_FACE('',(#89,#62),#43,.F.);
#320=ADVANCED_FACE('',(#90,#63),#44,.F.);
#321=ADVANCED_FACE('',(#91),#45,.F.);
#322=ADVANCED_FACE('',(#92,#64),#46,.F.);
#323=ADVANCED_FACE('',(#93,#65),#27,.T.);
#324=ADVANCED_FACE('',(#94,#66),#307,.T.);
#325=ADVANCED_FACE('',(#95),#47,.T.);
#326=ADVANCED_FACE('',(#96,#67),#35,.T.);
#327=ADVANCED_FACE('',(#97,#68),#36,.T.);
#328=ADVANCED_FACE('',(#98,#69),#37,.T.);
#329=ADVANCED_FACE('',(#99,#70),#38,.T.);
#330=ADVANCED_FACE('',(#100,#71),#39,.T.);
#331=ADVANCED_FACE('',(#101,#72),#48,.F.);
#332=ADVANCED_FACE('',(#102,#73),#308,.T.);
#333=ADVANCED_FACE('',(#103,#74),#40,.T.);
#334=ADVANCED_FACE('',(#104,#75),#49,.F.);
#335=ADVANCED_FACE('',(#105,#76),#50,.F.);
#336=ADVANCED_FACE('',(#106),#51,.F.);
#337=ADVANCED_FACE('',(#107,#77),#52,.F.);
#338=ADVANCED_FACE('',(#108,#78),#28,.T.);
#339=CLOSED_SHELL('',(#309,#310,#311,#312,#313,#314,#315,#316,#317,#318,
#319,#320,#321,#322,#323));
#340=CLOSED_SHELL('',(#324,#325,#326,#327,#328,#329,#330,#331,#332,#333,
#334,#335,#336,#337,#338));
#341=AXIS2_PLACEMENT_3D('placement',#530,#404,#405);
#342=AXIS2_PLACEMENT_3D('',#531,#406,#407);
#343=AXIS2_PLACEMENT_3D('',#533,#408,#409);
#344=AXIS2_PLACEMENT_3D('',#535,#410,#411);
#345=AXIS2_PLACEMENT_3D('',#536,#412,#413);
#346=AXIS2_PLACEMENT_3D('',#537,#414,#415);
#347=AXIS2_PLACEMENT_3D('',#539,#416,#417);
#348=AXIS2_PLACEMENT_3D('',#541,#418,#419);
#349=AXIS2_PLACEMENT_3D('',#542,#420,#421);
#350=AXIS2_PLACEMENT_3D('',#544,#422,#423);
#351=AXIS2_PLACEMENT_3D('',#545,#424,#425);
#352=AXIS2_PLACEMENT_3D('',#547,#426,#427);
#353=AXIS2_PLACEMENT_3D('',#549,#428,#429);
#354=AXIS2_PLACEMENT_3D('',#550,#430,#431);
#355=AXIS2_PLACEMENT_3D('',#552,#432,#433);
#356=AXIS2_PLACEMENT_3D('',#553,#434,#435);
#357=AXIS2_PLACEMENT_3D('',#555,#436,#437);
#358=AXIS2_PLACEMENT_3D('',#557,#438,#439);
#359=AXIS2_PLACEMENT_3D('',#558,#440,#441);
#360=AXIS2_PLACEMENT_3D('',#560,#442,#443);
#361=AXIS2_PLACEMENT_3D('',#561,#444,#445);
#362=AXIS2_PLACEMENT_3D('',#563,#446,#447);
#363=AXIS2_PLACEMENT_3D('',#564,#448,#449);
#364=AXIS2_PLACEMENT_3D('',#566,#450,#451);
#365=AXIS2_PLACEMENT_3D('',#567,#452,#453);
#366=AXIS2_PLACEMENT_3D('',#568,#454,#455);
#367=AXIS2_PLACEMENT_3D('',#569,#456,#457);
#368=AXIS2_PLACEMENT_3D('',#570,#458,#459);
#369=AXIS2_PLACEMENT_3D('',#572,#460,#461);
#370=AXIS2_PLACEMENT_3D('',#573,#462,#463);
#371=AXIS2_PLACEMENT_3D('placement',#574,#464,#465);
#372=AXIS2_PLACEMENT_3D('',#575,#466,#467);
#373=AXIS2_PLACEMENT_3D('',#577,#468,#469);
#374=AXIS2_PLACEMENT_3D('',#579,#470,#471);
#375=AXIS2_PLACEMENT_3D('',#580,#472,#473);
#376=AXIS2_PLACEMENT_3D('',#581,#474,#475);
#377=AXIS2_PLACEMENT_3D('',#583,#476,#477);
#378=AXIS2_PLACEMENT_3D('',#585,#478,#479);
#379=AXIS2_PLACEMENT_3D('',#586,#480,#481);
#380=AXIS2_PLACEMENT_3D('',#588,#482,#483);
#381=AXIS2_PLACEMENT_3D('',#589,#484,#485);
#382=AXIS2_PLACEMENT_3D('',#591,#486,#487);
#383=AXIS2_PLACEMENT_3D('',#593,#488,#489);
#384=AXIS2_PLACEMENT_3D('',#594,#490,#491);
#385=AXIS2_PLACEMENT_3D('',#596,#492,#493);
#386=AXIS2_PLACEMENT_3D('',#597,#494,#495);
#387=AXIS2_PLACEMENT_3D('',#599,#496,#497);
#388=AXIS2_PLACEMENT_3D('',#601,#498,#499);
#389=AXIS2_PLACEMENT_3D('',#602,#500,#501);
#390=AXIS2_PLACEMENT_3D('',#604,#502,#503);
#391=AXIS2_PLACEMENT_3D('',#605,#504,#505);
#392=AXIS2_PLACEMENT_3D('',#607,#506,#507);
#393=AXIS2_PLACEMENT_3D('',#608,#508,#509);
#394=AXIS2_PLACEMENT_3D('',#610,#510,#511);
#395=AXIS2_PLACEMENT_3D('',#611,#512,#513);
#396=AXIS2_PLACEMENT_3D('',#612,#514,#515);
#397=AXIS2_PLACEMENT_3D('',#613,#516,#517);
#398=AXIS2_PLACEMENT_3D('',#614,#518,#519);
#399=AXIS2_PLACEMENT_3D('',#616,#520,#521);
#400=AXIS2_PLACEMENT_3D('',#617,#522,#523);
#401=AXIS2_PLACEMENT_3D('placement',#618,#524,#525);
#402=AXIS2_PLACEMENT_3D('',#619,#526,#527);
#403=AXIS2_PLACEMENT_3D('',#620,#528,#529);
#404=DIRECTION('axis',(0.,0.,1.));
#405=DIRECTION('refdir',(1.,0.,0.));
#406=DIRECTION('center_axis',(0.,0.,1.));
#407=DIRECTION('ref_axis',(-1.,0.,0.));
#408=DIRECTION('center_axis',(0.,0.,1.));
#409=DIRECTION('ref_axis',(-1.,0.,0.));
#410=DIRECTION('center_axis',(0.,0.,-1.));
#411=DIRECTION('ref_axis',(-1.,0.,0.));
#412=DIRECTION('center_axis',(0.,0.,1.));
#413=DIRECTION('ref_axis',(1.,0.,0.));
#414=DIRECTION('center_axis',(-1.13390639043248E-48,9.2590483331353E-33,
-1.));
#415=DIRECTION('ref_axis',(-1.,-1.22464679914735E-16,0.));
#416=DIRECTION('center_axis',(0.,0.,1.));
#417=DIRECTION('ref_axis',(1.,0.,0.));
#418=DIRECTION('center_axis',(0.,0.,1.));
#419=DIRECTION('ref_axis',(-1.,0.,0.));
#420=DIRECTION('center_axis',(0.,0.,-1.));
#421=DIRECTION('ref_axis',(-1.,0.,0.));
#422=DIRECTION('center_axis',(0.,0.,-1.));
#423=DIRECTION('ref_axis',(1.,0.,0.));
#424=DIRECTION('center_axis',(-6.80343834259487E-48,-5.55542899988118E-32,
1.));
#425=DIRECTION('ref_axis',(-1.,1.22464679914735E-16,0.));
#426=DIRECTION('center_axis',(0.,0.,-1.));
#427=DIRECTION('ref_axis',(1.,0.,0.));
#428=DIRECTION('center_axis',(0.,0.,-1.));
#429=DIRECTION('ref_axis',(-1.,0.,0.));
#430=DIRECTION('center_axis',(0.,0.,-1.));
#431=DIRECTION('ref_axis',(-1.,0.,0.));
#432=DIRECTION('center_axis',(0.,0.,1.));
#433=DIRECTION('ref_axis',(1.,0.,0.));
#434=DIRECTION('center_axis',(0.,0.,-1.));
#435=DIRECTION('ref_axis',(-1.,0.,0.));
#436=DIRECTION('center_axis',(0.,0.,-1.));
#437=DIRECTION('ref_axis',(-1.,0.,0.));
#438=DIRECTION('center_axis',(0.,0.,1.));
#439=DIRECTION('ref_axis',(-1.,0.,0.));
#440=DIRECTION('center_axis',(0.,0.,1.));
#441=DIRECTION('ref_axis',(1.,0.,0.));
#442=DIRECTION('center_axis',(0.,0.,-1.));
#443=DIRECTION('ref_axis',(-1.,0.,0.));
#444=DIRECTION('center_axis',(0.,0.,1.));
#445=DIRECTION('ref_axis',(-1.,0.,0.));
#446=DIRECTION('center_axis',(0.,0.,1.));
#447=DIRECTION('ref_axis',(-1.,0.,0.));
#448=DIRECTION('center_axis',(0.,0.,-1.));
#449=DIRECTION('ref_axis',(-1.,0.,0.));
#450=DIRECTION('center_axis',(0.,0.,1.));
#451=DIRECTION('ref_axis',(1.,0.,0.));
#452=DIRECTION('center_axis',(0.,0.,1.));
#453=DIRECTION('ref_axis',(1.,0.,0.));
#454=DIRECTION('center_axis',(0.,0.,1.));
#455=DIRECTION('ref_axis',(1.,0.,0.));
#456=DIRECTION('center_axis',(0.,0.,1.));
#457=DIRECTION('ref_axis',(1.,0.,0.));
#458=DIRECTION('center_axis',(0.,0.,-1.));
#459=DIRECTION('ref_axis',(-1.,0.,0.));
#460=DIRECTION('center_axis',(0.,0.,-1.));
#461=DIRECTION('ref_axis',(-1.,0.,0.));
#462=DIRECTION('center_axis',(0.,0.,-1.));
#463=DIRECTION('ref_axis',(-1.,0.,0.));
#464=DIRECTION('axis',(0.,0.,1.));
#465=DIRECTION('refdir',(1.,0.,0.));
#466=DIRECTION('center_axis',(0.,0.,1.));
#467=DIRECTION('ref_axis',(-1.,0.,0.));
#468=DIRECTION('center_axis',(0.,0.,1.));
#469=DIRECTION('ref_axis',(-1.,0.,0.));
#470=DIRECTION('center_axis',(0.,0.,-1.));
#471=DIRECTION('ref_axis',(-1.,0.,0.));
#472=DIRECTION('center_axis',(0.,0.,1.));
#473=DIRECTION('ref_axis',(1.,0.,0.));
#474=DIRECTION('center_axis',(-1.13390639043248E-48,9.2590483331353E-33,
-1.));
#475=DIRECTION('ref_axis',(-1.,-1.22464679914735E-16,0.));
#476=DIRECTION('center_axis',(0.,0.,1.));
#477=DIRECTION('ref_axis',(1.,0.,0.));
#478=DIRECTION('center_axis',(0.,0.,1.));
#479=DIRECTION('ref_axis',(-1.,0.,0.));
#480=DIRECTION('center_axis',(0.,0.,-1.));
#481=DIRECTION('ref_axis',(-1.,0.,0.));
#482=DIRECTION('center_axis',(0.,0.,-1.));
#483=DIRECTION('ref_axis',(1.,0.,0.));
#484=DIRECTION('center_axis',(-6.80343834259487E-48,-5.55542899988118E-32,
1.));
#485=DIRECTION('ref_axis',(-1.,1.22464679914735E-16,0.));
#486=DIRECTION('center_axis',(0.,0.,-1.));
#487=DIRECTION('ref_axis',(1.,0.,0.));
#488=DIRECTION('center_axis',(0.,0.,-1.));
#489=DIRECTION('ref_axis',(-1.,0.,0.));
#490=DIRECTION('center_axis',(0.,0.,-1.));
#491=DIRECTION('ref_axis',(-1.,0.,0.));
#492=DIRECTION('center_axis',(0.,0.,1.));
#493=DIRECTION('ref_axis',(1.,0.,0.));
#494=DIRECTION('center_axis',(0.,0.,-1.));
#495=DIRECTION('ref_axis',(-1.,0.,0.));
#496=DIRECTION('center_axis',(0.,0.,-1.));
#497=DIRECTION('ref_axis',(-1.,0.,0.));
#498=DIRECTION('center_axis',(0.,0.,1.));
#499=DIRECTION('ref_axis',(-1.,0.,0.));
#500=DIRECTION('center_axis',(0.,0.,1.));
#501=DIRECTION('ref_axis',(1.,0.,0.));
#502=DIRECTION('center_axis',(0.,0.,-1.));
#503=DIRECTION('ref_axis',(-1.,0.,0.));
#504=DIRECTION('center_axis',(0.,0.,1.));
#505=DIRECTION('ref_axis',(-1.,0.,0.));
#506=DIRECTION('center_axis',(0.,0.,1.));
#507=DIRECTION('ref_axis',(-1.,0.,0.));
#508=DIRECTION('center_axis',(0.,0.,-1.));
#509=DIRECTION('ref_axis',(-1.,0.,0.));
#510=DIRECTION('center_axis',(0.,0.,1.));
#511=DIRECTION('ref_axis',(1.,0.,0.));
#512=DIRECTION('center_axis',(0.,0.,1.));
#513=DIRECTION('ref_axis',(1.,0.,0.));
#514=DIRECTION('center_axis',(0.,0.,1.));
#515=DIRECTION('ref_axis',(1.,0.,0.));
#516=DIRECTION('center_axis',(0.,0.,1.));
#517=DIRECTION('ref_axis',(1.,0.,0.));
#518=DIRECTION('center_axis',(0.,0.,-1.));
#519=DIRECTION('ref_axis',(-1.,0.,0.));
#520=DIRECTION('center_axis',(0.,0.,-1.));
#521=DIRECTION('ref_axis',(-1.,0.,0.));
#522=DIRECTION('center_axis',(0.,0.,-1.));
#523=DIRECTION('ref_axis',(-1.,0.,0.));
#524=DIRECTION('axis',(0.,0.,1.));
#525=DIRECTION('refdir',(1.,0.,0.));
#526=DIRECTION('',(0.,0.,1.));
#527=DIRECTION('',(1.,0.,0.));
#528=DIRECTION('',(-4.7184478546569E-16,1.55431223447522E-15,1.));
#529=DIRECTION('',(1.,-1.08246744900953E-15,4.71844785465691E-16));
#530=CARTESIAN_POINT('',(0.,0.,0.));
#531=CARTESIAN_POINT('Origin',(0.,0.,20.));
#532=CARTESIAN_POINT('',(4.,4.89858719658941E-16,32.));
#533=CARTESIAN_POINT('Origin',(0.,0.,32.));
#534=CARTESIAN_POINT('',(4.,4.89858719658941E-16,20.));
#535=CARTESIAN_POINT('Origin',(0.,0.,20.));
#536=CARTESIAN_POINT('Origin',(-2.72118023435153E-16,0.,32.));
#537=CARTESIAN_POINT('Origin',(0.,0.,1.497909538505));
#538=CARTESIAN_POINT('',(-2.25,2.75545529808154E-16,1.));
#539=CARTESIAN_POINT('Origin',(0.,0.,1.));
#540=CARTESIAN_POINT('',(3.5857864376269,4.39132188326578E-16,0.));
#541=CARTESIAN_POINT('Origin',(0.,0.,0.));
#542=CARTESIAN_POINT('Origin',(0.,0.,1.5));
#543=CARTESIAN_POINT('',(5.,6.12323399573677E-16,1.));
#544=CARTESIAN_POINT('Origin',(0.,0.,1.));
#545=CARTESIAN_POINT('Origin',(0.,0.,1.497909538505));
#546=CARTESIAN_POINT('',(12.25,-3.00038465791102E-15,1.));
#547=CARTESIAN_POINT('Origin',(0.,0.,1.));
#548=CARTESIAN_POINT('',(10.9142135623731,-1.33660567043708E-15,0.));
#549=CARTESIAN_POINT('Origin',(0.,0.,0.));
#550=CARTESIAN_POINT('Origin',(0.,0.,1.5));
#551=CARTESIAN_POINT('',(-9.5,1.16341445918999E-15,1.));
#552=CARTESIAN_POINT('Origin',(0.,0.,1.));
#553=CARTESIAN_POINT('Origin',(0.,0.,1.5));
#554=CARTESIAN_POINT('',(19.5,-2.38806125833734E-15,1.5));
#555=CARTESIAN_POINT('Origin',(0.,0.,1.5));
#556=CARTESIAN_POINT('',(18.,2.20436423846524E-15,0.));
#557=CARTESIAN_POINT('Origin',(0.,0.,0.));
#558=CARTESIAN_POINT('Origin',(-9.58131959305996E-16,3.79563427222276E-16,
0.));
#559=CARTESIAN_POINT('',(17.9142135623731,-2.19385842984023E-15,0.));
#560=CARTESIAN_POINT('Origin',(0.,0.,0.));
#561=CARTESIAN_POINT('Origin',(0.,0.,0.));
#562=CARTESIAN_POINT('',(19.5,2.38806125833734E-15,5.));
#563=CARTESIAN_POINT('Origin',(0.,0.,5.));
#564=CARTESIAN_POINT('Origin',(0.,0.,1.5));
#565=CARTESIAN_POINT('',(-16.5,2.02066721859313E-15,1.));
#566=CARTESIAN_POINT('Origin',(0.,0.,1.));
#567=CARTESIAN_POINT('Origin',(1.06553885377178E-15,0.,1.));
#568=CARTESIAN_POINT('Origin',(4.86503143397466E-16,1.94775969232484E-16,
1.));
#569=CARTESIAN_POINT('Origin',(1.25760555690046E-16,5.13992141030165E-17,
1.));
#570=CARTESIAN_POINT('Origin',(0.,0.,20.));
#571=CARTESIAN_POINT('',(-10.,0.,20.));
#572=CARTESIAN_POINT('Origin',(0.,0.,20.));
#573=CARTESIAN_POINT('Origin',(0.,0.,5.));
#574=CARTESIAN_POINT('',(0.,0.,0.));
#575=CARTESIAN_POINT('Origin',(0.,0.,20.));
#576=CARTESIAN_POINT('',(4.,4.89858719658941E-16,45.));
#577=CARTESIAN_POINT('Origin',(0.,0.,45.));
#578=CARTESIAN_POINT('',(4.,4.89858719658941E-16,20.));
#579=CARTESIAN_POINT('Origin',(0.,0.,20.));
#580=CARTESIAN_POINT('Origin',(-2.72116675257653E-16,0.,45.));
#581=CARTESIAN_POINT('Origin',(0.,0.,1.497909538505));
#582=CARTESIAN_POINT('',(-2.25,2.75545529808154E-16,1.));
#583=CARTESIAN_POINT('Origin',(0.,0.,1.));
#584=CARTESIAN_POINT('',(3.5857864376269,4.39132188326578E-16,0.));
#585=CARTESIAN_POINT('Origin',(0.,0.,0.));
#586=CARTESIAN_POINT('Origin',(0.,0.,1.5));
#587=CARTESIAN_POINT('',(5.,6.12323399573677E-16,1.));
#588=CARTESIAN_POINT('Origin',(0.,0.,1.));
#589=CARTESIAN_POINT('Origin',(0.,0.,1.497909538505));
#590=CARTESIAN_POINT('',(12.25,-3.00038465791102E-15,1.));
#591=CARTESIAN_POINT('Origin',(0.,0.,1.));
#592=CARTESIAN_POINT('',(10.9142135623731,-1.33660567043708E-15,0.));
#593=CARTESIAN_POINT('Origin',(0.,0.,0.));
#594=CARTESIAN_POINT('Origin',(0.,0.,1.5));
#595=CARTESIAN_POINT('',(-9.5,1.16341445918999E-15,1.));
#596=CARTESIAN_POINT('Origin',(0.,0.,1.));
#597=CARTESIAN_POINT('Origin',(0.,0.,1.5));
#598=CARTESIAN_POINT('',(19.5,-2.38806125833734E-15,1.5));
#599=CARTESIAN_POINT('Origin',(0.,0.,1.5));
#600=CARTESIAN_POINT('',(18.,2.20436423846524E-15,0.));
#601=CARTESIAN_POINT('Origin',(0.,0.,0.));
#602=CARTESIAN_POINT('Origin',(-9.58131959305996E-16,3.79563427222276E-16,
0.));
#603=CARTESIAN_POINT('',(17.9142135623731,-2.19385842984023E-15,0.));
#604=CARTESIAN_POINT('Origin',(0.,0.,0.));
#605=CARTESIAN_POINT('Origin',(0.,0.,0.));
#606=CARTESIAN_POINT('',(19.5,2.38806125833734E-15,5.));
#607=CARTESIAN_POINT('Origin',(0.,0.,5.));
#608=CARTESIAN_POINT('Origin',(0.,0.,1.5));
#609=CARTESIAN_POINT('',(-16.5,2.02066721859313E-15,1.));
#610=CARTESIAN_POINT('Origin',(0.,0.,1.));
#611=CARTESIAN_POINT('Origin',(1.06553885377178E-15,0.,1.));
#612=CARTESIAN_POINT('Origin',(4.86503143397466E-16,1.94775969232484E-16,
1.));
#613=CARTESIAN_POINT('Origin',(1.25760555690046E-16,5.13992141030165E-17,
1.));
#614=CARTESIAN_POINT('Origin',(0.,0.,20.));
#615=CARTESIAN_POINT('',(-10.,0.,20.));
#616=CARTESIAN_POINT('Origin',(0.,0.,20.));
#617=CARTESIAN_POINT('Origin',(0.,0.,5.));
#618=CARTESIAN_POINT('',(0.,0.,0.));
#619=CARTESIAN_POINT('',(-9.3385212616234,-4.52334657311441,-16.));
#620=CARTESIAN_POINT('',(40.8950907868918,-4.43611254698314,-16.0000000000001));
#621=UNCERTAINTY_MEASURE_WITH_UNIT(LENGTH_MEASURE(0.01),#629,
'DISTANCE_ACCURACY_VALUE',
'Maximum model space distance between geometric entities at asserted c
onnectivities');
#622=UNCERTAINTY_MEASURE_WITH_UNIT(LENGTH_MEASURE(0.01),#629,
'DISTANCE_ACCURACY_VALUE',
'Maximum model space distance between geometric entities at asserted c
onnectivities');
#623=UNCERTAINTY_MEASURE_WITH_UNIT(LENGTH_MEASURE(0.01),#629,
'DISTANCE_ACCURACY_VALUE',
'Maximum model space distance between geometric entities at asserted c
onnectivities');
#624=UNCERTAINTY_MEASURE_WITH_UNIT(LENGTH_MEASURE(1.E-6),#629,
'DISTANCE_ACCURACY_VALUE',
'Maximum model space distance between geometric entities at asserted c
onnectivities');
#625=(
GEOMETRIC_REPRESENTATION_CONTEXT(3)
GLOBAL_UNCERTAINTY_ASSIGNED_CONTEXT((#621))
GLOBAL_UNIT_ASSIGNED_CONTEXT((#629,#632,#630))
REPRESENTATION_CONTEXT('','3D')
);
#626=(
GEOMETRIC_REPRESENTATION_CONTEXT(3)
GLOBAL_UNCERTAINTY_ASSIGNED_CONTEXT((#622))
GLOBAL_UNIT_ASSIGNED_CONTEXT((#629,#632,#630))
REPRESENTATION_CONTEXT('','3D')
);
#627=(
GEOMETRIC_REPRESENTATION_CONTEXT(3)
GLOBAL_UNCERTAINTY_ASSIGNED_CONTEXT((#623))
GLOBAL_UNIT_ASSIGNED_CONTEXT((#629,#632,#630))
REPRESENTATION_CONTEXT('','3D')
);
#628=(
GEOMETRIC_REPRESENTATION_CONTEXT(3)
GLOBAL_UNCERTAINTY_ASSIGNED_CONTEXT((#624))
GLOBAL_UNIT_ASSIGNED_CONTEXT((#629,#632,#630))
REPRESENTATION_CONTEXT('','3D')
);
#629=(
LENGTH_UNIT()
NAMED_UNIT(*)
SI_UNIT(.MILLI.,.METRE.)
);
#630=(
NAMED_UNIT(*)
SI_UNIT($,.STERADIAN.)
SOLID_ANGLE_UNIT()
);
#631=DIMENSIONAL_EXPONENTS(0.,0.,0.,0.,0.,0.,0.);
#632=(
CONVERSION_BASED_UNIT('degree',#634)
NAMED_UNIT(#631)
PLANE_ANGLE_UNIT()
);
#633=(
NAMED_UNIT(*)
PLANE_ANGLE_UNIT()
SI_UNIT($,.RADIAN.)
);
#634=PLANE_ANGLE_MEASURE_WITH_UNIT(PLANE_ANGLE_MEASURE(0.01745329252),#633);
#635=SHAPE_DEFINITION_REPRESENTATION(#638,#643);
#636=SHAPE_DEFINITION_REPRESENTATION(#639,#644);
#637=SHAPE_DEFINITION_REPRESENTATION(#640,#645);
#638=PRODUCT_DEFINITION_SHAPE('',$,#647);
#639=PRODUCT_DEFINITION_SHAPE('',$,#648);
#640=PRODUCT_DEFINITION_SHAPE('',$,#649);
#641=PRODUCT_DEFINITION_SHAPE($,$,#17);
#642=PRODUCT_DEFINITION_SHAPE($,$,#18);
#643=SHAPE_REPRESENTATION('',(#341),#625);
#644=SHAPE_REPRESENTATION('',(#371),#626);
#645=SHAPE_REPRESENTATION('',(#401,#402,#403),#627);
#646=PRODUCT_DEFINITION_CONTEXT('part definition',#657,'design');
#647=PRODUCT_DEFINITION('DR_PRM8-3-12','DR_PRM8-3-12',#650,#646);
#648=PRODUCT_DEFINITION('DR_PRM8-3-25','DR_PRM8-3-25',#651,#646);
#649=PRODUCT_DEFINITION('PRM8-3_M','PRM8-3_M',#652,#646);
#650=PRODUCT_DEFINITION_FORMATION('',$,#659);
#651=PRODUCT_DEFINITION_FORMATION('',$,#660);
#652=PRODUCT_DEFINITION_FORMATION('',$,#661);
#653=PRODUCT_RELATED_PRODUCT_CATEGORY('DR_PRM8-3-12','DR_PRM8-3-12',(#659));
#654=PRODUCT_RELATED_PRODUCT_CATEGORY('DR_PRM8-3-25','DR_PRM8-3-25',(#660));
#655=PRODUCT_RELATED_PRODUCT_CATEGORY('PRM8-3_M','PRM8-3_M',(#661));
#656=APPLICATION_PROTOCOL_DEFINITION('international standard',
'automotive_design',2009,#657);
#657=APPLICATION_CONTEXT(
'Core Data for Automotive Mechanical Design Process');
#658=PRODUCT_CONTEXT('part definition',#657,'mechanical');
#659=PRODUCT('DR_PRM8-3-12','DR_PRM8-3-12',$,(#658));
#660=PRODUCT('DR_PRM8-3-25','DR_PRM8-3-25',$,(#658));
#661=PRODUCT('PRM8-3_M','PRM8-3_M',$,(#658));
#662=PRESENTATION_STYLE_ASSIGNMENT((#663));
#663=SURFACE_STYLE_USAGE(.BOTH.,#664);
#664=SURFACE_SIDE_STYLE($,(#665));
#665=SURFACE_STYLE_FILL_AREA(#666);
#666=FILL_AREA_STYLE($,(#667));
#667=FILL_AREA_STYLE_COLOUR($,#668);
#668=COLOUR_RGB('',1.,1.,1.);
ENDSEC;
END-ISO-10303-21;
