ISO-10303-21;
HEADER;
/* Generated by software containing ST-Developer
 * from STEP Tools, Inc. (www.steptools.com) 
 */

FILE_DESCRIPTION(
/* description */ (''),
/* implementation_level */ '2;1');

FILE_NAME(
/* name */ '\\\\NAS\\db20\\PRM8-2\\DR_PRM8-2.stp',
/* time_stamp */ '2017-09-27T10:36:52+09:00',
/* author */ ('user'),
/* organization */ (''),
/* preprocessor_version */ 'ST-DEVELOPER v15.6',
/* originating_system */ 'Autodesk Inventor 2015',
/* authorisation */ '');

FILE_SCHEMA (('AUTOMOTIVE_DESIGN { 1 0 10303 214 3 1 1 }'));
ENDSEC;

DATA;
#10=MECHANICAL_DESIGN_GEOMETRIC_PRESENTATION_REPRESENTATION('',(#13),#389);
#11=SHAPE_REPRESENTATION_RELATIONSHIP('SRR','None',#398,#12);
#12=ADVANCED_BREP_SHAPE_REPRESENTATION($,(#14),#388);
#13=STYLED_ITEM('',(#407),#14);
#14=MANIFOLD_SOLID_BREP('\X2\C194B9ACB4DC\X0\1',#215);
#15=CONICAL_SURFACE('',#244,14.5,5.04245106917092);
#16=CONICAL_SURFACE('',#251,17.,4.08561677997488);
#17=PLANE('',#223);
#18=PLANE('',#230);
#19=PLANE('',#234);
#20=PLANE('',#235);
#21=PLANE('',#236);
#22=PLANE('',#241);
#23=PLANE('',#242);
#24=PLANE('',#246);
#25=PLANE('',#249);
#26=PLANE('',#253);
#27=FACE_BOUND('',#64,.T.);
#28=FACE_BOUND('',#66,.T.);
#29=FACE_BOUND('',#68,.T.);
#30=FACE_BOUND('',#70,.T.);
#31=FACE_BOUND('',#72,.T.);
#32=FACE_BOUND('',#74,.T.);
#33=FACE_BOUND('',#76,.T.);
#34=FACE_BOUND('',#79,.T.);
#35=FACE_BOUND('',#81,.T.);
#36=FACE_BOUND('',#83,.T.);
#37=FACE_BOUND('',#86,.T.);
#38=FACE_BOUND('',#88,.T.);
#39=FACE_BOUND('',#90,.T.);
#40=FACE_BOUND('',#92,.T.);
#41=FACE_BOUND('',#94,.T.);
#42=FACE_BOUND('',#96,.T.);
#43=FACE_BOUND('',#98,.T.);
#44=FACE_OUTER_BOUND('',#63,.T.);
#45=FACE_OUTER_BOUND('',#65,.T.);
#46=FACE_OUTER_BOUND('',#67,.T.);
#47=FACE_OUTER_BOUND('',#69,.T.);
#48=FACE_OUTER_BOUND('',#71,.T.);
#49=FACE_OUTER_BOUND('',#73,.T.);
#50=FACE_OUTER_BOUND('',#75,.T.);
#51=FACE_OUTER_BOUND('',#77,.T.);
#52=FACE_OUTER_BOUND('',#78,.T.);
#53=FACE_OUTER_BOUND('',#80,.T.);
#54=FACE_OUTER_BOUND('',#82,.T.);
#55=FACE_OUTER_BOUND('',#84,.T.);
#56=FACE_OUTER_BOUND('',#85,.T.);
#57=FACE_OUTER_BOUND('',#87,.T.);
#58=FACE_OUTER_BOUND('',#89,.T.);
#59=FACE_OUTER_BOUND('',#91,.T.);
#60=FACE_OUTER_BOUND('',#93,.T.);
#61=FACE_OUTER_BOUND('',#95,.T.);
#62=FACE_OUTER_BOUND('',#97,.T.);
#63=EDGE_LOOP('',(#153));
#64=EDGE_LOOP('',(#154));
#65=EDGE_LOOP('',(#155));
#66=EDGE_LOOP('',(#156));
#67=EDGE_LOOP('',(#157));
#68=EDGE_LOOP('',(#158));
#69=EDGE_LOOP('',(#159));
#70=EDGE_LOOP('',(#160));
#71=EDGE_LOOP('',(#161));
#72=EDGE_LOOP('',(#162));
#73=EDGE_LOOP('',(#163));
#74=EDGE_LOOP('',(#164));
#75=EDGE_LOOP('',(#165));
#76=EDGE_LOOP('',(#166));
#77=EDGE_LOOP('',(#167));
#78=EDGE_LOOP('',(#168));
#79=EDGE_LOOP('',(#169));
#80=EDGE_LOOP('',(#170));
#81=EDGE_LOOP('',(#171));
#82=EDGE_LOOP('',(#172));
#83=EDGE_LOOP('',(#173));
#84=EDGE_LOOP('',(#174));
#85=EDGE_LOOP('',(#175));
#86=EDGE_LOOP('',(#176));
#87=EDGE_LOOP('',(#177));
#88=EDGE_LOOP('',(#178));
#89=EDGE_LOOP('',(#179));
#90=EDGE_LOOP('',(#180));
#91=EDGE_LOOP('',(#181));
#92=EDGE_LOOP('',(#182));
#93=EDGE_LOOP('',(#183));
#94=EDGE_LOOP('',(#184));
#95=EDGE_LOOP('',(#185));
#96=EDGE_LOOP('',(#186));
#97=EDGE_LOOP('',(#187));
#98=EDGE_LOOP('',(#188));
#99=CIRCLE('',#218,12.5);
#100=CIRCLE('',#219,12.5);
#101=CIRCLE('',#221,14.25);
#102=CIRCLE('',#222,14.25);
#103=CIRCLE('',#225,8.5);
#104=CIRCLE('',#226,8.5);
#105=CIRCLE('',#228,10.);
#106=CIRCLE('',#229,10.);
#107=CIRCLE('',#232,6.);
#108=CIRCLE('',#233,6.);
#109=CIRCLE('',#237,16.5);
#110=CIRCLE('',#239,4.);
#111=CIRCLE('',#240,4.);
#112=CIRCLE('',#243,13.);
#113=CIRCLE('',#245,14.5);
#114=CIRCLE('',#247,17.);
#115=CIRCLE('',#248,16.5);
#116=CIRCLE('',#250,16.5);
#117=VERTEX_POINT('',#332);
#118=VERTEX_POINT('',#334);
#119=VERTEX_POINT('',#337);
#120=VERTEX_POINT('',#339);
#121=VERTEX_POINT('',#343);
#122=VERTEX_POINT('',#345);
#123=VERTEX_POINT('',#348);
#124=VERTEX_POINT('',#350);
#125=VERTEX_POINT('',#354);
#126=VERTEX_POINT('',#356);
#127=VERTEX_POINT('',#361);
#128=VERTEX_POINT('',#364);
#129=VERTEX_POINT('',#366);
#130=VERTEX_POINT('',#370);
#131=VERTEX_POINT('',#373);
#132=VERTEX_POINT('',#376);
#133=VERTEX_POINT('',#378);
#134=VERTEX_POINT('',#381);
#135=EDGE_CURVE('',#117,#117,#99,.T.);
#136=EDGE_CURVE('',#118,#118,#100,.T.);
#137=EDGE_CURVE('',#119,#119,#101,.T.);
#138=EDGE_CURVE('',#120,#120,#102,.T.);
#139=EDGE_CURVE('',#121,#121,#103,.T.);
#140=EDGE_CURVE('',#122,#122,#104,.T.);
#141=EDGE_CURVE('',#123,#123,#105,.T.);
#142=EDGE_CURVE('',#124,#124,#106,.T.);
#143=EDGE_CURVE('',#125,#125,#107,.T.);
#144=EDGE_CURVE('',#126,#126,#108,.T.);
#145=EDGE_CURVE('',#127,#127,#109,.T.);
#146=EDGE_CURVE('',#128,#128,#110,.T.);
#147=EDGE_CURVE('',#129,#129,#111,.T.);
#148=EDGE_CURVE('',#130,#130,#112,.T.);
#149=EDGE_CURVE('',#131,#131,#113,.T.);
#150=EDGE_CURVE('',#132,#132,#114,.T.);
#151=EDGE_CURVE('',#133,#133,#115,.T.);
#152=EDGE_CURVE('',#134,#134,#116,.T.);
#153=ORIENTED_EDGE('',*,*,#135,.T.);
#154=ORIENTED_EDGE('',*,*,#136,.F.);
#155=ORIENTED_EDGE('',*,*,#137,.T.);
#156=ORIENTED_EDGE('',*,*,#138,.F.);
#157=ORIENTED_EDGE('',*,*,#137,.F.);
#158=ORIENTED_EDGE('',*,*,#135,.F.);
#159=ORIENTED_EDGE('',*,*,#139,.T.);
#160=ORIENTED_EDGE('',*,*,#140,.F.);
#161=ORIENTED_EDGE('',*,*,#141,.T.);
#162=ORIENTED_EDGE('',*,*,#142,.F.);
#163=ORIENTED_EDGE('',*,*,#141,.F.);
#164=ORIENTED_EDGE('',*,*,#139,.F.);
#165=ORIENTED_EDGE('',*,*,#143,.T.);
#166=ORIENTED_EDGE('',*,*,#144,.F.);
#167=ORIENTED_EDGE('',*,*,#143,.F.);
#168=ORIENTED_EDGE('',*,*,#136,.T.);
#169=ORIENTED_EDGE('',*,*,#142,.T.);
#170=ORIENTED_EDGE('',*,*,#145,.T.);
#171=ORIENTED_EDGE('',*,*,#138,.T.);
#172=ORIENTED_EDGE('',*,*,#146,.F.);
#173=ORIENTED_EDGE('',*,*,#147,.F.);
#174=ORIENTED_EDGE('',*,*,#146,.T.);
#175=ORIENTED_EDGE('',*,*,#148,.F.);
#176=ORIENTED_EDGE('',*,*,#147,.T.);
#177=ORIENTED_EDGE('',*,*,#149,.F.);
#178=ORIENTED_EDGE('',*,*,#148,.T.);
#179=ORIENTED_EDGE('',*,*,#150,.F.);
#180=ORIENTED_EDGE('',*,*,#151,.T.);
#181=ORIENTED_EDGE('',*,*,#152,.F.);
#182=ORIENTED_EDGE('',*,*,#149,.T.);
#183=ORIENTED_EDGE('',*,*,#150,.T.);
#184=ORIENTED_EDGE('',*,*,#152,.T.);
#185=ORIENTED_EDGE('',*,*,#151,.F.);
#186=ORIENTED_EDGE('',*,*,#145,.F.);
#187=ORIENTED_EDGE('',*,*,#140,.T.);
#188=ORIENTED_EDGE('',*,*,#144,.T.);
#189=CYLINDRICAL_SURFACE('',#217,12.5);
#190=CYLINDRICAL_SURFACE('',#220,14.25);
#191=CYLINDRICAL_SURFACE('',#224,8.5);
#192=CYLINDRICAL_SURFACE('',#227,10.);
#193=CYLINDRICAL_SURFACE('',#231,6.);
#194=CYLINDRICAL_SURFACE('',#238,4.);
#195=CYLINDRICAL_SURFACE('',#252,16.5);
#196=ADVANCED_FACE('',(#44,#27),#189,.T.);
#197=ADVANCED_FACE('',(#45,#28),#190,.F.);
#198=ADVANCED_FACE('',(#46,#29),#17,.F.);
#199=ADVANCED_FACE('',(#47,#30),#191,.T.);
#200=ADVANCED_FACE('',(#48,#31),#192,.F.);
#201=ADVANCED_FACE('',(#49,#32),#18,.F.);
#202=ADVANCED_FACE('',(#50,#33),#193,.F.);
#203=ADVANCED_FACE('',(#51),#19,.F.);
#204=ADVANCED_FACE('',(#52,#34),#20,.F.);
#205=ADVANCED_FACE('',(#53,#35),#21,.F.);
#206=ADVANCED_FACE('',(#54,#36),#194,.T.);
#207=ADVANCED_FACE('',(#55),#22,.T.);
#208=ADVANCED_FACE('',(#56,#37),#23,.F.);
#209=ADVANCED_FACE('',(#57,#38),#15,.T.);
#210=ADVANCED_FACE('',(#58,#39),#24,.F.);
#211=ADVANCED_FACE('',(#59,#40),#25,.F.);
#212=ADVANCED_FACE('',(#60,#41),#16,.T.);
#213=ADVANCED_FACE('',(#61,#42),#195,.T.);
#214=ADVANCED_FACE('',(#62,#43),#26,.F.);
#215=CLOSED_SHELL('',(#196,#197,#198,#199,#200,#201,#202,#203,#204,#205,
#206,#207,#208,#209,#210,#211,#212,#213,#214));
#216=AXIS2_PLACEMENT_3D('placement',#330,#254,#255);
#217=AXIS2_PLACEMENT_3D('',#331,#256,#257);
#218=AXIS2_PLACEMENT_3D('',#333,#258,#259);
#219=AXIS2_PLACEMENT_3D('',#335,#260,#261);
#220=AXIS2_PLACEMENT_3D('',#336,#262,#263);
#221=AXIS2_PLACEMENT_3D('',#338,#264,#265);
#222=AXIS2_PLACEMENT_3D('',#340,#266,#267);
#223=AXIS2_PLACEMENT_3D('',#341,#268,#269);
#224=AXIS2_PLACEMENT_3D('',#342,#270,#271);
#225=AXIS2_PLACEMENT_3D('',#344,#272,#273);
#226=AXIS2_PLACEMENT_3D('',#346,#274,#275);
#227=AXIS2_PLACEMENT_3D('',#347,#276,#277);
#228=AXIS2_PLACEMENT_3D('',#349,#278,#279);
#229=AXIS2_PLACEMENT_3D('',#351,#280,#281);
#230=AXIS2_PLACEMENT_3D('',#352,#282,#283);
#231=AXIS2_PLACEMENT_3D('',#353,#284,#285);
#232=AXIS2_PLACEMENT_3D('',#355,#286,#287);
#233=AXIS2_PLACEMENT_3D('',#357,#288,#289);
#234=AXIS2_PLACEMENT_3D('',#358,#290,#291);
#235=AXIS2_PLACEMENT_3D('',#359,#292,#293);
#236=AXIS2_PLACEMENT_3D('',#360,#294,#295);
#237=AXIS2_PLACEMENT_3D('',#362,#296,#297);
#238=AXIS2_PLACEMENT_3D('',#363,#298,#299);
#239=AXIS2_PLACEMENT_3D('',#365,#300,#301);
#240=AXIS2_PLACEMENT_3D('',#367,#302,#303);
#241=AXIS2_PLACEMENT_3D('',#368,#304,#305);
#242=AXIS2_PLACEMENT_3D('',#369,#306,#307);
#243=AXIS2_PLACEMENT_3D('',#371,#308,#309);
#244=AXIS2_PLACEMENT_3D('',#372,#310,#311);
#245=AXIS2_PLACEMENT_3D('',#374,#312,#313);
#246=AXIS2_PLACEMENT_3D('',#375,#314,#315);
#247=AXIS2_PLACEMENT_3D('',#377,#316,#317);
#248=AXIS2_PLACEMENT_3D('',#379,#318,#319);
#249=AXIS2_PLACEMENT_3D('',#380,#320,#321);
#250=AXIS2_PLACEMENT_3D('',#382,#322,#323);
#251=AXIS2_PLACEMENT_3D('',#383,#324,#325);
#252=AXIS2_PLACEMENT_3D('',#384,#326,#327);
#253=AXIS2_PLACEMENT_3D('',#385,#328,#329);
#254=DIRECTION('axis',(0.,0.,1.));
#255=DIRECTION('refdir',(1.,0.,0.));
#256=DIRECTION('center_axis',(0.,0.,1.));
#257=DIRECTION('ref_axis',(1.,0.,0.));
#258=DIRECTION('center_axis',(0.,0.,-1.));
#259=DIRECTION('ref_axis',(1.,0.,0.));
#260=DIRECTION('center_axis',(0.,0.,-1.));
#261=DIRECTION('ref_axis',(1.,0.,0.));
#262=DIRECTION('center_axis',(0.,0.,1.));
#263=DIRECTION('ref_axis',(1.,0.,0.));
#264=DIRECTION('center_axis',(0.,0.,1.));
#265=DIRECTION('ref_axis',(1.,0.,0.));
#266=DIRECTION('center_axis',(0.,0.,1.));
#267=DIRECTION('ref_axis',(1.,0.,0.));
#268=DIRECTION('center_axis',(0.,0.,1.));
#269=DIRECTION('ref_axis',(1.,0.,0.));
#270=DIRECTION('center_axis',(0.,0.,1.));
#271=DIRECTION('ref_axis',(1.,0.,0.));
#272=DIRECTION('center_axis',(0.,0.,-1.));
#273=DIRECTION('ref_axis',(1.,0.,0.));
#274=DIRECTION('center_axis',(0.,0.,-1.));
#275=DIRECTION('ref_axis',(1.,0.,0.));
#276=DIRECTION('center_axis',(0.,0.,1.));
#277=DIRECTION('ref_axis',(1.,0.,0.));
#278=DIRECTION('center_axis',(0.,0.,1.));
#279=DIRECTION('ref_axis',(1.,0.,0.));
#280=DIRECTION('center_axis',(0.,0.,1.));
#281=DIRECTION('ref_axis',(1.,0.,0.));
#282=DIRECTION('center_axis',(0.,0.,1.));
#283=DIRECTION('ref_axis',(1.,0.,0.));
#284=DIRECTION('center_axis',(0.,0.,1.));
#285=DIRECTION('ref_axis',(1.,0.,0.));
#286=DIRECTION('center_axis',(0.,0.,1.));
#287=DIRECTION('ref_axis',(1.,0.,0.));
#288=DIRECTION('center_axis',(0.,0.,1.));
#289=DIRECTION('ref_axis',(1.,0.,0.));
#290=DIRECTION('center_axis',(0.,0.,1.));
#291=DIRECTION('ref_axis',(1.,0.,0.));
#292=DIRECTION('center_axis',(0.,0.,1.));
#293=DIRECTION('ref_axis',(1.,0.,0.));
#294=DIRECTION('center_axis',(0.,0.,1.));
#295=DIRECTION('ref_axis',(1.,0.,0.));
#296=DIRECTION('center_axis',(0.,0.,-1.));
#297=DIRECTION('ref_axis',(-1.,0.,0.));
#298=DIRECTION('center_axis',(0.,0.,1.));
#299=DIRECTION('ref_axis',(-1.,0.,0.));
#300=DIRECTION('center_axis',(0.,0.,1.));
#301=DIRECTION('ref_axis',(-1.,0.,0.));
#302=DIRECTION('center_axis',(0.,0.,-1.));
#303=DIRECTION('ref_axis',(-1.,0.,0.));
#304=DIRECTION('center_axis',(0.,0.,1.));
#305=DIRECTION('ref_axis',(1.,0.,0.));
#306=DIRECTION('center_axis',(0.,0.,-1.));
#307=DIRECTION('ref_axis',(-1.,0.,0.));
#308=DIRECTION('center_axis',(0.,0.,-1.));
#309=DIRECTION('ref_axis',(-1.,0.,0.));
#310=DIRECTION('center_axis',(0.,0.,-1.));
#311=DIRECTION('ref_axis',(-1.,0.,0.));
#312=DIRECTION('center_axis',(0.,0.,-1.));
#313=DIRECTION('ref_axis',(-1.,0.,0.));
#314=DIRECTION('center_axis',(0.,0.,1.));
#315=DIRECTION('ref_axis',(1.,0.,0.));
#316=DIRECTION('center_axis',(0.,0.,1.));
#317=DIRECTION('ref_axis',(-1.,0.,0.));
#318=DIRECTION('center_axis',(0.,0.,1.));
#319=DIRECTION('ref_axis',(-1.,0.,0.));
#320=DIRECTION('center_axis',(0.,0.,-1.));
#321=DIRECTION('ref_axis',(-1.,0.,0.));
#322=DIRECTION('center_axis',(0.,0.,-1.));
#323=DIRECTION('ref_axis',(-1.,0.,0.));
#324=DIRECTION('center_axis',(0.,0.,-1.));
#325=DIRECTION('ref_axis',(-1.,0.,0.));
#326=DIRECTION('center_axis',(0.,0.,1.));
#327=DIRECTION('ref_axis',(-1.,0.,0.));
#328=DIRECTION('center_axis',(0.,0.,1.));
#329=DIRECTION('ref_axis',(1.,0.,0.));
#330=CARTESIAN_POINT('',(0.,0.,0.));
#331=CARTESIAN_POINT('Origin',(0.,0.,0.));
#332=CARTESIAN_POINT('',(-12.5,1.53080849893419E-15,1.));
#333=CARTESIAN_POINT('Origin',(0.,0.,1.));
#334=CARTESIAN_POINT('',(-12.5,1.53080849893419E-15,0.));
#335=CARTESIAN_POINT('Origin',(0.,0.,0.));
#336=CARTESIAN_POINT('Origin',(0.,0.,0.));
#337=CARTESIAN_POINT('',(-14.25,1.74512168878498E-15,1.));
#338=CARTESIAN_POINT('Origin',(0.,0.,1.));
#339=CARTESIAN_POINT('',(-14.25,1.74512168878498E-15,0.));
#340=CARTESIAN_POINT('Origin',(0.,0.,0.));
#341=CARTESIAN_POINT('Origin',(6.64829392018704E-16,-2.59701292309978E-16,
1.));
#342=CARTESIAN_POINT('Origin',(0.,0.,0.));
#343=CARTESIAN_POINT('',(-8.5,1.04094977927525E-15,1.));
#344=CARTESIAN_POINT('Origin',(0.,0.,1.));
#345=CARTESIAN_POINT('',(-8.5,1.04094977927525E-15,0.));
#346=CARTESIAN_POINT('Origin',(0.,0.,0.));
#347=CARTESIAN_POINT('Origin',(0.,0.,0.));
#348=CARTESIAN_POINT('',(-10.,1.22464679914735E-15,1.));
#349=CARTESIAN_POINT('Origin',(0.,0.,1.));
#350=CARTESIAN_POINT('',(-10.,1.22464679914735E-15,0.));
#351=CARTESIAN_POINT('Origin',(0.,0.,0.));
#352=CARTESIAN_POINT('Origin',(4.72128241470665E-16,1.85037170770859E-16,
1.));
#353=CARTESIAN_POINT('Origin',(0.,0.,0.));
#354=CARTESIAN_POINT('',(-6.,7.34788079488412E-16,1.));
#355=CARTESIAN_POINT('Origin',(0.,0.,1.));
#356=CARTESIAN_POINT('',(-6.,7.34788079488412E-16,0.));
#357=CARTESIAN_POINT('Origin',(0.,0.,0.));
#358=CARTESIAN_POINT('Origin',(3.69627624575467E-16,-1.54197642309049E-16,
1.));
#359=CARTESIAN_POINT('Origin',(-1.06553885377178E-15,0.,0.));
#360=CARTESIAN_POINT('Origin',(-1.06553885377178E-15,0.,0.));
#361=CARTESIAN_POINT('',(16.5,2.02066721859313E-15,0.));
#362=CARTESIAN_POINT('Origin',(0.,0.,0.));
#363=CARTESIAN_POINT('Origin',(0.,0.,25.));
#364=CARTESIAN_POINT('',(4.,4.89858719658941E-16,47.));
#365=CARTESIAN_POINT('Origin',(0.,0.,47.));
#366=CARTESIAN_POINT('',(4.,4.89858719658941E-16,25.));
#367=CARTESIAN_POINT('Origin',(0.,0.,25.));
#368=CARTESIAN_POINT('Origin',(-1.56469791703366E-16,-5.78241158658936E-17,
47.));
#369=CARTESIAN_POINT('Origin',(0.,0.,25.));
#370=CARTESIAN_POINT('',(-13.,0.,25.));
#371=CARTESIAN_POINT('Origin',(0.,0.,25.));
#372=CARTESIAN_POINT('Origin',(0.,0.,8.));
#373=CARTESIAN_POINT('',(-14.5,0.,8.));
#374=CARTESIAN_POINT('Origin',(0.,0.,8.));
#375=CARTESIAN_POINT('Origin',(0.,0.,1.));
#376=CARTESIAN_POINT('',(-17.,0.,1.));
#377=CARTESIAN_POINT('Origin',(0.,0.,1.));
#378=CARTESIAN_POINT('',(16.5,2.02066721859313E-15,1.));
#379=CARTESIAN_POINT('Origin',(0.,0.,1.));
#380=CARTESIAN_POINT('Origin',(0.,0.,8.));
#381=CARTESIAN_POINT('',(-16.5,0.,8.));
#382=CARTESIAN_POINT('Origin',(0.,0.,8.));
#383=CARTESIAN_POINT('Origin',(0.,0.,1.));
#384=CARTESIAN_POINT('Origin',(0.,0.,0.));
#385=CARTESIAN_POINT('Origin',(-1.06553885377178E-15,0.,0.));
#386=UNCERTAINTY_MEASURE_WITH_UNIT(LENGTH_MEASURE(0.01),#390,
'DISTANCE_ACCURACY_VALUE',
'Maximum model space distance between geometric entities at asserted c
onnectivities');
#387=UNCERTAINTY_MEASURE_WITH_UNIT(LENGTH_MEASURE(1.E-6),#390,
'DISTANCE_ACCURACY_VALUE',
'Maximum model space distance between geometric entities at asserted c
onnectivities');
#388=(
GEOMETRIC_REPRESENTATION_CONTEXT(3)
GLOBAL_UNCERTAINTY_ASSIGNED_CONTEXT((#386))
GLOBAL_UNIT_ASSIGNED_CONTEXT((#390,#393,#391))
REPRESENTATION_CONTEXT('','3D')
);
#389=(
GEOMETRIC_REPRESENTATION_CONTEXT(3)
GLOBAL_UNCERTAINTY_ASSIGNED_CONTEXT((#387))
GLOBAL_UNIT_ASSIGNED_CONTEXT((#390,#393,#391))
REPRESENTATION_CONTEXT('','3D')
);
#390=(
LENGTH_UNIT()
NAMED_UNIT(*)
SI_UNIT(.MILLI.,.METRE.)
);
#391=(
NAMED_UNIT(*)
SI_UNIT($,.STERADIAN.)
SOLID_ANGLE_UNIT()
);
#392=DIMENSIONAL_EXPONENTS(0.,0.,0.,0.,0.,0.,0.);
#393=(
CONVERSION_BASED_UNIT('degree',#395)
NAMED_UNIT(#392)
PLANE_ANGLE_UNIT()
);
#394=(
NAMED_UNIT(*)
PLANE_ANGLE_UNIT()
SI_UNIT($,.RADIAN.)
);
#395=PLANE_ANGLE_MEASURE_WITH_UNIT(PLANE_ANGLE_MEASURE(0.01745329252),#394);
#396=SHAPE_DEFINITION_REPRESENTATION(#397,#398);
#397=PRODUCT_DEFINITION_SHAPE('',$,#400);
#398=SHAPE_REPRESENTATION('',(#216),#388);
#399=PRODUCT_DEFINITION_CONTEXT('part definition',#404,'design');
#400=PRODUCT_DEFINITION('DR_PRM8-2','DR_PRM8-2',#401,#399);
#401=PRODUCT_DEFINITION_FORMATION('',$,#406);
#402=PRODUCT_RELATED_PRODUCT_CATEGORY('DR_PRM8-2','DR_PRM8-2',(#406));
#403=APPLICATION_PROTOCOL_DEFINITION('international standard',
'automotive_design',2009,#404);
#404=APPLICATION_CONTEXT(
'Core Data for Automotive Mechanical Design Process');
#405=PRODUCT_CONTEXT('part definition',#404,'mechanical');
#406=PRODUCT('DR_PRM8-2','DR_PRM8-2',$,(#405));
#407=PRESENTATION_STYLE_ASSIGNMENT((#408));
#408=SURFACE_STYLE_USAGE(.BOTH.,#409);
#409=SURFACE_SIDE_STYLE($,(#410));
#410=SURFACE_STYLE_FILL_AREA(#411);
#411=FILL_AREA_STYLE($,(#412));
#412=FILL_AREA_STYLE_COLOUR($,#413);
#413=COLOUR_RGB('',1.,1.,1.);
ENDSEC;
END-ISO-10303-21;
