ISO-10303-21;
HEADER;
/* Generated by software containing ST-Developer
 * from STEP Tools, Inc. (www.steptools.com) 
 */

FILE_DESCRIPTION(
/* description */ (''),
/* implementation_level */ '2;1');

FILE_NAME(
/* name */ 
'\\\\SYNOLOGYNAS\\web\\db2\\PR8-M10-D40-H24\\\X2\B3C4BA74\X0\\\DR_PR8-
M10-D40-H24.stp',
/* time_stamp */ '2023-03-21T15:31:42+09:00',
/* author */ ('user'),
/* organization */ (''),
/* preprocessor_version */ 'ST-DEVELOPER v15.6',
/* originating_system */ 'Autodesk Inventor 2015',
/* authorisation */ '');

FILE_SCHEMA (('AUTOMOTIVE_DESIGN { 1 0 10303 214 3 1 1 }'));
ENDSEC;

DATA;
#10=MECHANICAL_DESIGN_GEOMETRIC_PRESENTATION_REPRESENTATION('',(#13),#269);
#11=SHAPE_REPRESENTATION_RELATIONSHIP('SRR','None',#278,#12);
#12=ADVANCED_BREP_SHAPE_REPRESENTATION($,(#14),#268);
#13=STYLED_ITEM('',(#287),#14);
#14=MANIFOLD_SOLID_BREP('\X2\C194B9ACB4DC\X0\1',#149);
#15=PLANE('',#156);
#16=PLANE('',#160);
#17=PLANE('',#162);
#18=PLANE('',#166);
#19=PLANE('',#169);
#20=PLANE('',#173);
#21=CYLINDRICAL_SURFACE('',#154,17.5);
#22=CYLINDRICAL_SURFACE('',#165,20.25);
#23=CYLINDRICAL_SURFACE('',#168,5.);
#24=CYLINDRICAL_SURFACE('',#172,20.25);
#25=CYLINDRICAL_SURFACE('',#175,5.);
#26=FACE_BOUND('',#51,.T.);
#27=FACE_BOUND('',#53,.T.);
#28=FACE_BOUND('',#55,.T.);
#29=FACE_BOUND('',#57,.T.);
#30=FACE_BOUND('',#59,.T.);
#31=FACE_BOUND('',#61,.T.);
#32=FACE_BOUND('',#63,.T.);
#33=FACE_BOUND('',#66,.T.);
#34=FACE_BOUND('',#68,.T.);
#35=FACE_BOUND('',#70,.T.);
#36=FACE_BOUND('',#73,.T.);
#37=FACE_OUTER_BOUND('',#50,.T.);
#38=FACE_OUTER_BOUND('',#52,.T.);
#39=FACE_OUTER_BOUND('',#54,.T.);
#40=FACE_OUTER_BOUND('',#56,.T.);
#41=FACE_OUTER_BOUND('',#58,.T.);
#42=FACE_OUTER_BOUND('',#60,.T.);
#43=FACE_OUTER_BOUND('',#62,.T.);
#44=FACE_OUTER_BOUND('',#64,.T.);
#45=FACE_OUTER_BOUND('',#65,.T.);
#46=FACE_OUTER_BOUND('',#67,.T.);
#47=FACE_OUTER_BOUND('',#69,.T.);
#48=FACE_OUTER_BOUND('',#71,.T.);
#49=FACE_OUTER_BOUND('',#72,.T.);
#50=EDGE_LOOP('',(#110));
#51=EDGE_LOOP('',(#111));
#52=EDGE_LOOP('',(#112));
#53=EDGE_LOOP('',(#113));
#54=EDGE_LOOP('',(#114));
#55=EDGE_LOOP('',(#115));
#56=EDGE_LOOP('',(#116));
#57=EDGE_LOOP('',(#117));
#58=EDGE_LOOP('',(#118));
#59=EDGE_LOOP('',(#119));
#60=EDGE_LOOP('',(#120));
#61=EDGE_LOOP('',(#121));
#62=EDGE_LOOP('',(#122));
#63=EDGE_LOOP('',(#123));
#64=EDGE_LOOP('',(#124));
#65=EDGE_LOOP('',(#125));
#66=EDGE_LOOP('',(#126));
#67=EDGE_LOOP('',(#127));
#68=EDGE_LOOP('',(#128));
#69=EDGE_LOOP('',(#129));
#70=EDGE_LOOP('',(#130));
#71=EDGE_LOOP('',(#131));
#72=EDGE_LOOP('',(#132));
#73=EDGE_LOOP('',(#133));
#74=CIRCLE('',#152,17.5);
#75=CIRCLE('',#153,18.5);
#76=CIRCLE('',#155,17.5);
#77=CIRCLE('',#157,20.25);
#78=CIRCLE('',#159,18.5);
#79=CIRCLE('',#161,20.25);
#80=CIRCLE('',#163,20.25);
#81=CIRCLE('',#164,5.);
#82=CIRCLE('',#167,5.);
#83=CIRCLE('',#170,20.25);
#84=CIRCLE('',#171,5.);
#85=CIRCLE('',#174,5.);
#86=VERTEX_POINT('',#230);
#87=VERTEX_POINT('',#232);
#88=VERTEX_POINT('',#235);
#89=VERTEX_POINT('',#238);
#90=VERTEX_POINT('',#241);
#91=VERTEX_POINT('',#244);
#92=VERTEX_POINT('',#247);
#93=VERTEX_POINT('',#249);
#94=VERTEX_POINT('',#253);
#95=VERTEX_POINT('',#257);
#96=VERTEX_POINT('',#259);
#97=VERTEX_POINT('',#263);
#98=EDGE_CURVE('',#86,#86,#74,.T.);
#99=EDGE_CURVE('',#87,#87,#75,.T.);
#100=EDGE_CURVE('',#88,#88,#76,.T.);
#101=EDGE_CURVE('',#89,#89,#77,.T.);
#102=EDGE_CURVE('',#90,#90,#78,.T.);
#103=EDGE_CURVE('',#91,#91,#79,.T.);
#104=EDGE_CURVE('',#92,#92,#80,.T.);
#105=EDGE_CURVE('',#93,#93,#81,.T.);
#106=EDGE_CURVE('',#94,#94,#82,.T.);
#107=EDGE_CURVE('',#95,#95,#83,.T.);
#108=EDGE_CURVE('',#96,#96,#84,.T.);
#109=EDGE_CURVE('',#97,#97,#85,.T.);
#110=ORIENTED_EDGE('',*,*,#98,.T.);
#111=ORIENTED_EDGE('',*,*,#99,.T.);
#112=ORIENTED_EDGE('',*,*,#100,.F.);
#113=ORIENTED_EDGE('',*,*,#98,.F.);
#114=ORIENTED_EDGE('',*,*,#101,.F.);
#115=ORIENTED_EDGE('',*,*,#99,.F.);
#116=ORIENTED_EDGE('',*,*,#102,.T.);
#117=ORIENTED_EDGE('',*,*,#100,.T.);
#118=ORIENTED_EDGE('',*,*,#103,.T.);
#119=ORIENTED_EDGE('',*,*,#102,.F.);
#120=ORIENTED_EDGE('',*,*,#104,.T.);
#121=ORIENTED_EDGE('',*,*,#105,.F.);
#122=ORIENTED_EDGE('',*,*,#101,.T.);
#123=ORIENTED_EDGE('',*,*,#104,.F.);
#124=ORIENTED_EDGE('',*,*,#106,.T.);
#125=ORIENTED_EDGE('',*,*,#106,.F.);
#126=ORIENTED_EDGE('',*,*,#105,.T.);
#127=ORIENTED_EDGE('',*,*,#107,.F.);
#128=ORIENTED_EDGE('',*,*,#108,.T.);
#129=ORIENTED_EDGE('',*,*,#103,.F.);
#130=ORIENTED_EDGE('',*,*,#107,.T.);
#131=ORIENTED_EDGE('',*,*,#109,.F.);
#132=ORIENTED_EDGE('',*,*,#109,.T.);
#133=ORIENTED_EDGE('',*,*,#108,.F.);
#134=TOROIDAL_SURFACE('',#151,18.5,1.);
#135=TOROIDAL_SURFACE('',#158,18.5,1.);
#136=ADVANCED_FACE('',(#37,#26),#134,.F.);
#137=ADVANCED_FACE('',(#38,#27),#21,.T.);
#138=ADVANCED_FACE('',(#39,#28),#15,.F.);
#139=ADVANCED_FACE('',(#40,#29),#135,.F.);
#140=ADVANCED_FACE('',(#41,#30),#16,.T.);
#141=ADVANCED_FACE('',(#42,#31),#17,.F.);
#142=ADVANCED_FACE('',(#43,#32),#22,.T.);
#143=ADVANCED_FACE('',(#44),#18,.F.);
#144=ADVANCED_FACE('',(#45,#33),#23,.T.);
#145=ADVANCED_FACE('',(#46,#34),#19,.T.);
#146=ADVANCED_FACE('',(#47,#35),#24,.T.);
#147=ADVANCED_FACE('',(#48),#20,.T.);
#148=ADVANCED_FACE('',(#49,#36),#25,.T.);
#149=CLOSED_SHELL('',(#136,#137,#138,#139,#140,#141,#142,#143,#144,#145,
#146,#147,#148));
#150=AXIS2_PLACEMENT_3D('placement',#228,#176,#177);
#151=AXIS2_PLACEMENT_3D('',#229,#178,#179);
#152=AXIS2_PLACEMENT_3D('',#231,#180,#181);
#153=AXIS2_PLACEMENT_3D('',#233,#182,#183);
#154=AXIS2_PLACEMENT_3D('',#234,#184,#185);
#155=AXIS2_PLACEMENT_3D('',#236,#186,#187);
#156=AXIS2_PLACEMENT_3D('',#237,#188,#189);
#157=AXIS2_PLACEMENT_3D('',#239,#190,#191);
#158=AXIS2_PLACEMENT_3D('',#240,#192,#193);
#159=AXIS2_PLACEMENT_3D('',#242,#194,#195);
#160=AXIS2_PLACEMENT_3D('',#243,#196,#197);
#161=AXIS2_PLACEMENT_3D('',#245,#198,#199);
#162=AXIS2_PLACEMENT_3D('',#246,#200,#201);
#163=AXIS2_PLACEMENT_3D('',#248,#202,#203);
#164=AXIS2_PLACEMENT_3D('',#250,#204,#205);
#165=AXIS2_PLACEMENT_3D('',#251,#206,#207);
#166=AXIS2_PLACEMENT_3D('',#252,#208,#209);
#167=AXIS2_PLACEMENT_3D('',#254,#210,#211);
#168=AXIS2_PLACEMENT_3D('',#255,#212,#213);
#169=AXIS2_PLACEMENT_3D('',#256,#214,#215);
#170=AXIS2_PLACEMENT_3D('',#258,#216,#217);
#171=AXIS2_PLACEMENT_3D('',#260,#218,#219);
#172=AXIS2_PLACEMENT_3D('',#261,#220,#221);
#173=AXIS2_PLACEMENT_3D('',#262,#222,#223);
#174=AXIS2_PLACEMENT_3D('',#264,#224,#225);
#175=AXIS2_PLACEMENT_3D('',#265,#226,#227);
#176=DIRECTION('axis',(0.,0.,1.));
#177=DIRECTION('refdir',(1.,0.,0.));
#178=DIRECTION('center_axis',(1.,4.49037159687364E-17,0.));
#179=DIRECTION('ref_axis',(0.,0.,-1.));
#180=DIRECTION('center_axis',(1.,4.49037159687364E-17,0.));
#181=DIRECTION('ref_axis',(4.75809867696496E-17,-1.,1.83697019872103E-16));
#182=DIRECTION('center_axis',(-1.,-4.49037159687364E-17,0.));
#183=DIRECTION('ref_axis',(4.49037159687364E-17,-1.,1.83697019872103E-16));
#184=DIRECTION('center_axis',(1.,4.49037159687364E-17,0.));
#185=DIRECTION('ref_axis',(0.,1.,0.));
#186=DIRECTION('center_axis',(-1.,-4.49037159687364E-17,0.));
#187=DIRECTION('ref_axis',(4.75809867696496E-17,-1.,1.83697019872103E-16));
#188=DIRECTION('center_axis',(1.,4.49037159687364E-17,0.));
#189=DIRECTION('ref_axis',(0.,0.,-1.));
#190=DIRECTION('center_axis',(1.,4.49037159687364E-17,0.));
#191=DIRECTION('ref_axis',(0.,0.,-1.));
#192=DIRECTION('center_axis',(1.,4.49037159687364E-17,0.));
#193=DIRECTION('ref_axis',(0.,0.,-1.));
#194=DIRECTION('center_axis',(1.,4.49037159687364E-17,0.));
#195=DIRECTION('ref_axis',(4.49037159687364E-17,-1.,1.83697019872103E-16));
#196=DIRECTION('center_axis',(1.,4.49037159687364E-17,0.));
#197=DIRECTION('ref_axis',(0.,0.,-1.));
#198=DIRECTION('center_axis',(1.,4.49037159687364E-17,0.));
#199=DIRECTION('ref_axis',(0.,0.,-1.));
#200=DIRECTION('center_axis',(-1.,-4.49037159687364E-17,0.));
#201=DIRECTION('ref_axis',(0.,0.,1.));
#202=DIRECTION('center_axis',(1.,4.49037159687364E-17,0.));
#203=DIRECTION('ref_axis',(0.,0.,-1.));
#204=DIRECTION('center_axis',(1.,4.49037159687364E-17,0.));
#205=DIRECTION('ref_axis',(0.,0.,-1.));
#206=DIRECTION('center_axis',(1.,4.49037159687364E-17,0.));
#207=DIRECTION('ref_axis',(-8.98074319374728E-17,1.,0.));
#208=DIRECTION('center_axis',(-1.,-4.49037159687364E-17,0.));
#209=DIRECTION('ref_axis',(0.,0.,1.));
#210=DIRECTION('center_axis',(1.,4.49037159687364E-17,0.));
#211=DIRECTION('ref_axis',(0.,0.,-1.));
#212=DIRECTION('center_axis',(1.,4.49037159687364E-17,0.));
#213=DIRECTION('ref_axis',(-8.98074319374728E-17,1.,0.));
#214=DIRECTION('center_axis',(-1.,-4.49037159687364E-17,0.));
#215=DIRECTION('ref_axis',(0.,0.,1.));
#216=DIRECTION('center_axis',(1.,4.49037159687364E-17,0.));
#217=DIRECTION('ref_axis',(0.,0.,-1.));
#218=DIRECTION('center_axis',(1.,4.49037159687364E-17,0.));
#219=DIRECTION('ref_axis',(0.,0.,-1.));
#220=DIRECTION('center_axis',(1.,4.49037159687364E-17,0.));
#221=DIRECTION('ref_axis',(0.,1.,0.));
#222=DIRECTION('center_axis',(-1.,-4.49037159687364E-17,0.));
#223=DIRECTION('ref_axis',(0.,0.,1.));
#224=DIRECTION('center_axis',(1.,4.49037159687364E-17,0.));
#225=DIRECTION('ref_axis',(0.,0.,-1.));
#226=DIRECTION('center_axis',(1.,4.49037159687364E-17,0.));
#227=DIRECTION('ref_axis',(0.,1.,0.));
#228=CARTESIAN_POINT('',(0.,0.,0.));
#229=CARTESIAN_POINT('Origin',(6.5,2.91874153796787E-16,0.));
#230=CARTESIAN_POINT('',(6.5,17.5,-1.07156594925393E-15));
#231=CARTESIAN_POINT('Origin',(6.5,2.91874153796787E-16,0.));
#232=CARTESIAN_POINT('',(7.5,18.5,-5.66399144605651E-15));
#233=CARTESIAN_POINT('Origin',(7.50000000000001,3.36777869765523E-16,0.));
#234=CARTESIAN_POINT('Origin',(-3.75,-1.68388934882762E-16,0.));
#235=CARTESIAN_POINT('',(-6.50000000000001,17.5,-5.35782974626967E-15));
#236=CARTESIAN_POINT('Origin',(-6.50000000000001,-2.91874153796787E-16,
0.));
#237=CARTESIAN_POINT('Origin',(7.5,17.5,0.));
#238=CARTESIAN_POINT('',(7.5,20.25,0.));
#239=CARTESIAN_POINT('Origin',(7.5,3.36777869765523E-16,0.));
#240=CARTESIAN_POINT('Origin',(-6.50000000000001,-2.91874153796787E-16,
0.));
#241=CARTESIAN_POINT('',(-7.50000000000001,18.5,-1.1327982892113E-15));
#242=CARTESIAN_POINT('Origin',(-7.5,-3.36777869765523E-16,0.));
#243=CARTESIAN_POINT('Origin',(-7.50000000000001,17.5,0.));
#244=CARTESIAN_POINT('',(-7.5,20.25,0.));
#245=CARTESIAN_POINT('Origin',(-7.5,-3.36777869765523E-16,0.));
#246=CARTESIAN_POINT('Origin',(12.5,20.25,0.));
#247=CARTESIAN_POINT('',(12.5,20.25,0.));
#248=CARTESIAN_POINT('Origin',(12.5,5.61296449609206E-16,0.));
#249=CARTESIAN_POINT('',(12.5,5.,0.));
#250=CARTESIAN_POINT('Origin',(12.5,5.61296449609205E-16,0.));
#251=CARTESIAN_POINT('Origin',(10.,4.49037159687365E-16,0.));
#252=CARTESIAN_POINT('Origin',(40.5,5.,0.));
#253=CARTESIAN_POINT('',(40.5,5.,0.));
#254=CARTESIAN_POINT('Origin',(40.5,1.81860049673383E-15,0.));
#255=CARTESIAN_POINT('Origin',(26.5,1.18994847317152E-15,0.));
#256=CARTESIAN_POINT('Origin',(-12.5,20.25,0.));
#257=CARTESIAN_POINT('',(-12.5,20.25,0.));
#258=CARTESIAN_POINT('Origin',(-12.5,-5.61296449609206E-16,0.));
#259=CARTESIAN_POINT('',(-12.5,5.,0.));
#260=CARTESIAN_POINT('Origin',(-12.5,-5.61296449609205E-16,0.));
#261=CARTESIAN_POINT('Origin',(-10.,-4.49037159687365E-16,0.));
#262=CARTESIAN_POINT('Origin',(-40.5,4.99999999999999,0.));
#263=CARTESIAN_POINT('',(-40.5,4.99999999999999,0.));
#264=CARTESIAN_POINT('Origin',(-40.5,-1.81860049673383E-15,0.));
#265=CARTESIAN_POINT('Origin',(-26.5,-1.18994847317152E-15,0.));
#266=UNCERTAINTY_MEASURE_WITH_UNIT(LENGTH_MEASURE(0.01),#270,
'DISTANCE_ACCURACY_VALUE',
'Maximum model space distance between geometric entities at asserted c
onnectivities');
#267=UNCERTAINTY_MEASURE_WITH_UNIT(LENGTH_MEASURE(1.E-6),#270,
'DISTANCE_ACCURACY_VALUE',
'Maximum model space distance between geometric entities at asserted c
onnectivities');
#268=(
GEOMETRIC_REPRESENTATION_CONTEXT(3)
GLOBAL_UNCERTAINTY_ASSIGNED_CONTEXT((#266))
GLOBAL_UNIT_ASSIGNED_CONTEXT((#270,#273,#271))
REPRESENTATION_CONTEXT('','3D')
);
#269=(
GEOMETRIC_REPRESENTATION_CONTEXT(3)
GLOBAL_UNCERTAINTY_ASSIGNED_CONTEXT((#267))
GLOBAL_UNIT_ASSIGNED_CONTEXT((#270,#273,#271))
REPRESENTATION_CONTEXT('','3D')
);
#270=(
LENGTH_UNIT()
NAMED_UNIT(*)
SI_UNIT(.MILLI.,.METRE.)
);
#271=(
NAMED_UNIT(*)
SI_UNIT($,.STERADIAN.)
SOLID_ANGLE_UNIT()
);
#272=DIMENSIONAL_EXPONENTS(0.,0.,0.,0.,0.,0.,0.);
#273=(
CONVERSION_BASED_UNIT('degree',#275)
NAMED_UNIT(#272)
PLANE_ANGLE_UNIT()
);
#274=(
NAMED_UNIT(*)
PLANE_ANGLE_UNIT()
SI_UNIT($,.RADIAN.)
);
#275=PLANE_ANGLE_MEASURE_WITH_UNIT(PLANE_ANGLE_MEASURE(0.01745329252),#274);
#276=SHAPE_DEFINITION_REPRESENTATION(#277,#278);
#277=PRODUCT_DEFINITION_SHAPE('',$,#280);
#278=SHAPE_REPRESENTATION('',(#150),#268);
#279=PRODUCT_DEFINITION_CONTEXT('part definition',#284,'design');
#280=PRODUCT_DEFINITION('DR_PR8-M10-D40-H24','DR_PR8-M10-D40-H24',#281,
#279);
#281=PRODUCT_DEFINITION_FORMATION('',$,#286);
#282=PRODUCT_RELATED_PRODUCT_CATEGORY('DR_PR8-M10-D40-H24',
'DR_PR8-M10-D40-H24',(#286));
#283=APPLICATION_PROTOCOL_DEFINITION('international standard',
'automotive_design',2009,#284);
#284=APPLICATION_CONTEXT(
'Core Data for Automotive Mechanical Design Process');
#285=PRODUCT_CONTEXT('part definition',#284,'mechanical');
#286=PRODUCT('DR_PR8-M10-D40-H24','DR_PR8-M10-D40-H24',$,(#285));
#287=PRESENTATION_STYLE_ASSIGNMENT((#288));
#288=SURFACE_STYLE_USAGE(.BOTH.,#289);
#289=SURFACE_SIDE_STYLE($,(#290));
#290=SURFACE_STYLE_FILL_AREA(#291);
#291=FILL_AREA_STYLE($,(#292));
#292=FILL_AREA_STYLE_COLOUR($,#293);
#293=COLOUR_RGB('',1.,1.,1.);
ENDSEC;
END-ISO-10303-21;
