ISO-10303-21;
HEADER;
/* Generated by software containing ST-Developer
 * from STEP Tools, Inc. (www.steptools.com) 
 */

FILE_DESCRIPTION(
/* description */ (''),
/* implementation_level */ '2;1');

FILE_NAME(
/* name */ '\\\\SYNOLOGYNAS\\web\\db2\\PR3-45\\\X2\B3C4BA74\X0\\\DR_PR
3-45.stp',
/* time_stamp */ '2023-06-30T10:35:37+09:00',
/* author */ ('user'),
/* organization */ (''),
/* preprocessor_version */ 'ST-DEVELOPER v15.6',
/* originating_system */ 'Autodesk Inventor 2015',
/* authorisation */ '');

FILE_SCHEMA (('AUTOMOTIVE_DESIGN { 1 0 10303 214 3 1 1 }'));
ENDSEC;

DATA;
#10=MECHANICAL_DESIGN_GEOMETRIC_PRESENTATION_REPRESENTATION('',(#13),#229);
#11=SHAPE_REPRESENTATION_RELATIONSHIP('SRR','None',#238,#12);
#12=ADVANCED_BREP_SHAPE_REPRESENTATION($,(#14),#228);
#13=STYLED_ITEM('',(#247),#14);
#14=MANIFOLD_SOLID_BREP('\X2\C194B9ACB4DC\X0\1',#127);
#15=CYLINDRICAL_SURFACE('',#134,19.5);
#16=CYLINDRICAL_SURFACE('',#147,21.75);
#17=PLANE('',#132);
#18=PLANE('',#137);
#19=PLANE('',#140);
#20=PLANE('',#144);
#21=PLANE('',#145);
#22=PLANE('',#149);
#23=FACE_BOUND('',#44,.T.);
#24=FACE_BOUND('',#46,.T.);
#25=FACE_BOUND('',#48,.T.);
#26=FACE_BOUND('',#51,.T.);
#27=FACE_BOUND('',#54,.T.);
#28=FACE_BOUND('',#56,.T.);
#29=FACE_BOUND('',#58,.T.);
#30=FACE_BOUND('',#60,.T.);
#31=FACE_BOUND('',#62,.T.);
#32=FACE_OUTER_BOUND('',#43,.T.);
#33=FACE_OUTER_BOUND('',#45,.T.);
#34=FACE_OUTER_BOUND('',#47,.T.);
#35=FACE_OUTER_BOUND('',#49,.T.);
#36=FACE_OUTER_BOUND('',#50,.T.);
#37=FACE_OUTER_BOUND('',#52,.T.);
#38=FACE_OUTER_BOUND('',#53,.T.);
#39=FACE_OUTER_BOUND('',#55,.T.);
#40=FACE_OUTER_BOUND('',#57,.T.);
#41=FACE_OUTER_BOUND('',#59,.T.);
#42=FACE_OUTER_BOUND('',#61,.T.);
#43=EDGE_LOOP('',(#93));
#44=EDGE_LOOP('',(#94));
#45=EDGE_LOOP('',(#95));
#46=EDGE_LOOP('',(#96));
#47=EDGE_LOOP('',(#97));
#48=EDGE_LOOP('',(#98));
#49=EDGE_LOOP('',(#99));
#50=EDGE_LOOP('',(#100));
#51=EDGE_LOOP('',(#101));
#52=EDGE_LOOP('',(#102));
#53=EDGE_LOOP('',(#103));
#54=EDGE_LOOP('',(#104));
#55=EDGE_LOOP('',(#105));
#56=EDGE_LOOP('',(#106));
#57=EDGE_LOOP('',(#107));
#58=EDGE_LOOP('',(#108));
#59=EDGE_LOOP('',(#109));
#60=EDGE_LOOP('',(#110));
#61=EDGE_LOOP('',(#111));
#62=EDGE_LOOP('',(#112));
#63=CIRCLE('',#130,19.75);
#64=CIRCLE('',#131,20.75);
#65=CIRCLE('',#133,23.);
#66=CIRCLE('',#135,19.5);
#67=CIRCLE('',#136,19.5);
#68=CIRCLE('',#139,27.);
#69=CIRCLE('',#142,26.);
#70=CIRCLE('',#143,22.);
#71=CIRCLE('',#146,21.75);
#72=CIRCLE('',#148,21.75);
#73=VERTEX_POINT('',#196);
#74=VERTEX_POINT('',#198);
#75=VERTEX_POINT('',#201);
#76=VERTEX_POINT('',#204);
#77=VERTEX_POINT('',#206);
#78=VERTEX_POINT('',#210);
#79=VERTEX_POINT('',#214);
#80=VERTEX_POINT('',#216);
#81=VERTEX_POINT('',#220);
#82=VERTEX_POINT('',#223);
#83=EDGE_CURVE('',#73,#73,#63,.T.);
#84=EDGE_CURVE('',#74,#74,#64,.T.);
#85=EDGE_CURVE('',#75,#75,#65,.T.);
#86=EDGE_CURVE('',#76,#76,#66,.T.);
#87=EDGE_CURVE('',#77,#77,#67,.T.);
#88=EDGE_CURVE('',#78,#78,#68,.T.);
#89=EDGE_CURVE('',#79,#79,#69,.T.);
#90=EDGE_CURVE('',#80,#80,#70,.T.);
#91=EDGE_CURVE('',#81,#81,#71,.T.);
#92=EDGE_CURVE('',#82,#82,#72,.T.);
#93=ORIENTED_EDGE('',*,*,#83,.F.);
#94=ORIENTED_EDGE('',*,*,#84,.F.);
#95=ORIENTED_EDGE('',*,*,#85,.F.);
#96=ORIENTED_EDGE('',*,*,#84,.T.);
#97=ORIENTED_EDGE('',*,*,#86,.T.);
#98=ORIENTED_EDGE('',*,*,#87,.F.);
#99=ORIENTED_EDGE('',*,*,#86,.F.);
#100=ORIENTED_EDGE('',*,*,#88,.F.);
#101=ORIENTED_EDGE('',*,*,#85,.T.);
#102=ORIENTED_EDGE('',*,*,#83,.T.);
#103=ORIENTED_EDGE('',*,*,#89,.T.);
#104=ORIENTED_EDGE('',*,*,#90,.T.);
#105=ORIENTED_EDGE('',*,*,#90,.F.);
#106=ORIENTED_EDGE('',*,*,#87,.T.);
#107=ORIENTED_EDGE('',*,*,#89,.F.);
#108=ORIENTED_EDGE('',*,*,#91,.T.);
#109=ORIENTED_EDGE('',*,*,#91,.F.);
#110=ORIENTED_EDGE('',*,*,#92,.F.);
#111=ORIENTED_EDGE('',*,*,#88,.T.);
#112=ORIENTED_EDGE('',*,*,#92,.T.);
#113=TOROIDAL_SURFACE('',#129,20.25,0.5);
#114=TOROIDAL_SURFACE('',#138,23.,4.);
#115=TOROIDAL_SURFACE('',#141,22.,4.);
#116=ADVANCED_FACE('',(#32,#23),#113,.T.);
#117=ADVANCED_FACE('',(#33,#24),#17,.F.);
#118=ADVANCED_FACE('',(#34,#25),#15,.F.);
#119=ADVANCED_FACE('',(#35),#18,.T.);
#120=ADVANCED_FACE('',(#36,#26),#114,.T.);
#121=ADVANCED_FACE('',(#37),#19,.F.);
#122=ADVANCED_FACE('',(#38,#27),#115,.T.);
#123=ADVANCED_FACE('',(#39,#28),#20,.T.);
#124=ADVANCED_FACE('',(#40,#29),#21,.F.);
#125=ADVANCED_FACE('',(#41,#30),#16,.T.);
#126=ADVANCED_FACE('',(#42,#31),#22,.T.);
#127=CLOSED_SHELL('',(#116,#117,#118,#119,#120,#121,#122,#123,#124,#125,
#126));
#128=AXIS2_PLACEMENT_3D('placement',#194,#150,#151);
#129=AXIS2_PLACEMENT_3D('',#195,#152,#153);
#130=AXIS2_PLACEMENT_3D('',#197,#154,#155);
#131=AXIS2_PLACEMENT_3D('',#199,#156,#157);
#132=AXIS2_PLACEMENT_3D('',#200,#158,#159);
#133=AXIS2_PLACEMENT_3D('',#202,#160,#161);
#134=AXIS2_PLACEMENT_3D('',#203,#162,#163);
#135=AXIS2_PLACEMENT_3D('',#205,#164,#165);
#136=AXIS2_PLACEMENT_3D('',#207,#166,#167);
#137=AXIS2_PLACEMENT_3D('',#208,#168,#169);
#138=AXIS2_PLACEMENT_3D('',#209,#170,#171);
#139=AXIS2_PLACEMENT_3D('',#211,#172,#173);
#140=AXIS2_PLACEMENT_3D('',#212,#174,#175);
#141=AXIS2_PLACEMENT_3D('',#213,#176,#177);
#142=AXIS2_PLACEMENT_3D('',#215,#178,#179);
#143=AXIS2_PLACEMENT_3D('',#217,#180,#181);
#144=AXIS2_PLACEMENT_3D('',#218,#182,#183);
#145=AXIS2_PLACEMENT_3D('',#219,#184,#185);
#146=AXIS2_PLACEMENT_3D('',#221,#186,#187);
#147=AXIS2_PLACEMENT_3D('',#222,#188,#189);
#148=AXIS2_PLACEMENT_3D('',#224,#190,#191);
#149=AXIS2_PLACEMENT_3D('',#225,#192,#193);
#150=DIRECTION('axis',(0.,0.,1.));
#151=DIRECTION('refdir',(1.,0.,0.));
#152=DIRECTION('center_axis',(0.,-1.,0.));
#153=DIRECTION('ref_axis',(0.,0.,-1.));
#154=DIRECTION('center_axis',(0.,-1.,0.));
#155=DIRECTION('ref_axis',(-1.,0.,0.));
#156=DIRECTION('center_axis',(0.,1.,0.));
#157=DIRECTION('ref_axis',(-1.,0.,0.));
#158=DIRECTION('center_axis',(0.,1.,0.));
#159=DIRECTION('ref_axis',(0.,0.,1.));
#160=DIRECTION('center_axis',(0.,1.,0.));
#161=DIRECTION('ref_axis',(1.,0.,0.));
#162=DIRECTION('center_axis',(0.,-1.,0.));
#163=DIRECTION('ref_axis',(1.,0.,0.));
#164=DIRECTION('center_axis',(0.,-1.,0.));
#165=DIRECTION('ref_axis',(1.,0.,0.));
#166=DIRECTION('center_axis',(0.,-1.,0.));
#167=DIRECTION('ref_axis',(1.,0.,0.));
#168=DIRECTION('center_axis',(-5.55111512312578E-17,1.,0.));
#169=DIRECTION('ref_axis',(0.,0.,1.));
#170=DIRECTION('center_axis',(0.,-1.,0.));
#171=DIRECTION('ref_axis',(0.,0.,-1.));
#172=DIRECTION('center_axis',(0.,1.,0.));
#173=DIRECTION('ref_axis',(1.,0.,0.));
#174=DIRECTION('center_axis',(0.,1.,0.));
#175=DIRECTION('ref_axis',(0.,0.,1.));
#176=DIRECTION('center_axis',(0.,1.,0.));
#177=DIRECTION('ref_axis',(0.,0.,1.));
#178=DIRECTION('center_axis',(0.,1.,0.));
#179=DIRECTION('ref_axis',(1.,0.,0.));
#180=DIRECTION('center_axis',(0.,-1.,0.));
#181=DIRECTION('ref_axis',(-1.,0.,-1.22464679914735E-16));
#182=DIRECTION('center_axis',(0.,1.,0.));
#183=DIRECTION('ref_axis',(0.,0.,1.));
#184=DIRECTION('center_axis',(0.,1.,0.));
#185=DIRECTION('ref_axis',(0.,0.,1.));
#186=DIRECTION('center_axis',(0.,1.,0.));
#187=DIRECTION('ref_axis',(1.,0.,0.));
#188=DIRECTION('center_axis',(0.,1.,0.));
#189=DIRECTION('ref_axis',(1.,0.,0.));
#190=DIRECTION('center_axis',(0.,-1.,0.));
#191=DIRECTION('ref_axis',(1.,0.,0.));
#192=DIRECTION('center_axis',(0.,1.,0.));
#193=DIRECTION('ref_axis',(0.,0.,1.));
#194=CARTESIAN_POINT('',(0.,0.,0.));
#195=CARTESIAN_POINT('Origin',(0.,0.,0.));
#196=CARTESIAN_POINT('',(19.75,0.,2.41867742831602E-15));
#197=CARTESIAN_POINT('Origin',(0.,0.,0.));
#198=CARTESIAN_POINT('',(20.75,0.,2.54114210823076E-15));
#199=CARTESIAN_POINT('Origin',(0.,0.,0.));
#200=CARTESIAN_POINT('Origin',(2.75545529808154E-16,0.,0.));
#201=CARTESIAN_POINT('',(-23.,0.,2.81668763803891E-15));
#202=CARTESIAN_POINT('Origin',(0.,0.,0.));
#203=CARTESIAN_POINT('Origin',(0.,10.,0.));
#204=CARTESIAN_POINT('',(19.5,1.,0.));
#205=CARTESIAN_POINT('Origin',(0.,1.,0.));
#206=CARTESIAN_POINT('',(19.5,10.,0.));
#207=CARTESIAN_POINT('Origin',(0.,10.,0.));
#208=CARTESIAN_POINT('Origin',(-9.58131959305996E-16,1.,3.79563427222276E-16));
#209=CARTESIAN_POINT('Origin',(0.,4.,0.));
#210=CARTESIAN_POINT('',(-27.,4.,3.30654635769785E-15));
#211=CARTESIAN_POINT('Origin',(0.,4.,0.));
#212=CARTESIAN_POINT('Origin',(2.75545529808154E-16,0.,0.));
#213=CARTESIAN_POINT('Origin',(0.,6.,0.));
#214=CARTESIAN_POINT('',(26.,6.,0.));
#215=CARTESIAN_POINT('Origin',(0.,6.,0.));
#216=CARTESIAN_POINT('',(22.,10.,5.38844591624836E-15));
#217=CARTESIAN_POINT('Origin',(0.,10.,0.));
#218=CARTESIAN_POINT('Origin',(-1.40403042148209E-15,10.,5.69345140833414E-16));
#219=CARTESIAN_POINT('Origin',(-1.40403042148209E-15,6.,5.69345140833414E-16));
#220=CARTESIAN_POINT('',(21.75,6.,0.));
#221=CARTESIAN_POINT('Origin',(0.,6.,0.));
#222=CARTESIAN_POINT('Origin',(0.,4.,0.));
#223=CARTESIAN_POINT('',(21.75,4.,0.));
#224=CARTESIAN_POINT('Origin',(0.,4.,0.));
#225=CARTESIAN_POINT('Origin',(2.75545529808154E-16,4.,0.));
#226=UNCERTAINTY_MEASURE_WITH_UNIT(LENGTH_MEASURE(0.01),#230,
'DISTANCE_ACCURACY_VALUE',
'Maximum model space distance between geometric entities at asserted c
onnectivities');
#227=UNCERTAINTY_MEASURE_WITH_UNIT(LENGTH_MEASURE(1.E-6),#230,
'DISTANCE_ACCURACY_VALUE',
'Maximum model space distance between geometric entities at asserted c
onnectivities');
#228=(
GEOMETRIC_REPRESENTATION_CONTEXT(3)
GLOBAL_UNCERTAINTY_ASSIGNED_CONTEXT((#226))
GLOBAL_UNIT_ASSIGNED_CONTEXT((#230,#233,#231))
REPRESENTATION_CONTEXT('','3D')
);
#229=(
GEOMETRIC_REPRESENTATION_CONTEXT(3)
GLOBAL_UNCERTAINTY_ASSIGNED_CONTEXT((#227))
GLOBAL_UNIT_ASSIGNED_CONTEXT((#230,#233,#231))
REPRESENTATION_CONTEXT('','3D')
);
#230=(
LENGTH_UNIT()
NAMED_UNIT(*)
SI_UNIT(.MILLI.,.METRE.)
);
#231=(
NAMED_UNIT(*)
SI_UNIT($,.STERADIAN.)
SOLID_ANGLE_UNIT()
);
#232=DIMENSIONAL_EXPONENTS(0.,0.,0.,0.,0.,0.,0.);
#233=(
CONVERSION_BASED_UNIT('degree',#235)
NAMED_UNIT(#232)
PLANE_ANGLE_UNIT()
);
#234=(
NAMED_UNIT(*)
PLANE_ANGLE_UNIT()
SI_UNIT($,.RADIAN.)
);
#235=PLANE_ANGLE_MEASURE_WITH_UNIT(PLANE_ANGLE_MEASURE(0.01745329252),#234);
#236=SHAPE_DEFINITION_REPRESENTATION(#237,#238);
#237=PRODUCT_DEFINITION_SHAPE('',$,#240);
#238=SHAPE_REPRESENTATION('',(#128),#228);
#239=PRODUCT_DEFINITION_CONTEXT('part definition',#244,'design');
#240=PRODUCT_DEFINITION('DR_PR3-45','DR_PR3-45',#241,#239);
#241=PRODUCT_DEFINITION_FORMATION('',$,#246);
#242=PRODUCT_RELATED_PRODUCT_CATEGORY('DR_PR3-45','DR_PR3-45',(#246));
#243=APPLICATION_PROTOCOL_DEFINITION('international standard',
'automotive_design',2009,#244);
#244=APPLICATION_CONTEXT(
'Core Data for Automotive Mechanical Design Process');
#245=PRODUCT_CONTEXT('part definition',#244,'mechanical');
#246=PRODUCT('DR_PR3-45','DR_PR3-45',$,(#245));
#247=PRESENTATION_STYLE_ASSIGNMENT((#248));
#248=SURFACE_STYLE_USAGE(.BOTH.,#249);
#249=SURFACE_SIDE_STYLE($,(#250));
#250=SURFACE_STYLE_FILL_AREA(#251);
#251=FILL_AREA_STYLE($,(#252));
#252=FILL_AREA_STYLE_COLOUR($,#253);
#253=COLOUR_RGB('',1.,1.,1.);
ENDSEC;
END-ISO-10303-21;
