ISO-10303-21;
HEADER;
/* Generated by software containing ST-Developer
 * from STEP Tools, Inc. (www.steptools.com) 
 */

FILE_DESCRIPTION(
/* description */ (''),
/* implementation_level */ '2;1');

FILE_NAME(
/* name */ 
'\\\\SYNOLOGYNAS\\web\\db2\\PR3-32\\\X2\B3C4BA74\X0\\\\X2\B3C4BA74BCC0
ACBD\X0\\\DR_PR3-32.stp',
/* time_stamp */ '2023-09-06T10:19:46+09:00',
/* author */ ('user'),
/* organization */ (''),
/* preprocessor_version */ 'ST-DEVELOPER v15.6',
/* originating_system */ 'Autodesk Inventor 2015',
/* authorisation */ '');

FILE_SCHEMA (('AUTOMOTIVE_DESIGN { 1 0 10303 214 3 1 1 }'));
ENDSEC;

DATA;
#10=MECHANICAL_DESIGN_GEOMETRIC_PRESENTATION_REPRESENTATION('',(#13),#189);
#11=SHAPE_REPRESENTATION_RELATIONSHIP('SRR','None',#198,#12);
#12=ADVANCED_BREP_SHAPE_REPRESENTATION($,(#14),#188);
#13=STYLED_ITEM('',(#207),#14);
#14=MANIFOLD_SOLID_BREP('\X2\C194B9ACB4DC\X0\2',#105);
#15=TOROIDAL_SURFACE('',#116,15.5,3.125);
#16=TOROIDAL_SURFACE('',#121,15.5,3.53125);
#17=PLANE('',#110);
#18=PLANE('',#111);
#19=PLANE('',#114);
#20=PLANE('',#119);
#21=PLANE('',#123);
#22=FACE_BOUND('',#39,.T.);
#23=FACE_BOUND('',#42,.T.);
#24=FACE_BOUND('',#44,.T.);
#25=FACE_BOUND('',#46,.T.);
#26=FACE_BOUND('',#48,.T.);
#27=FACE_BOUND('',#51,.T.);
#28=FACE_BOUND('',#53,.T.);
#29=FACE_OUTER_BOUND('',#38,.T.);
#30=FACE_OUTER_BOUND('',#40,.T.);
#31=FACE_OUTER_BOUND('',#41,.T.);
#32=FACE_OUTER_BOUND('',#43,.T.);
#33=FACE_OUTER_BOUND('',#45,.T.);
#34=FACE_OUTER_BOUND('',#47,.T.);
#35=FACE_OUTER_BOUND('',#49,.T.);
#36=FACE_OUTER_BOUND('',#50,.T.);
#37=FACE_OUTER_BOUND('',#52,.T.);
#38=EDGE_LOOP('',(#78));
#39=EDGE_LOOP('',(#79));
#40=EDGE_LOOP('',(#80));
#41=EDGE_LOOP('',(#81));
#42=EDGE_LOOP('',(#82));
#43=EDGE_LOOP('',(#83));
#44=EDGE_LOOP('',(#84));
#45=EDGE_LOOP('',(#85));
#46=EDGE_LOOP('',(#86));
#47=EDGE_LOOP('',(#87));
#48=EDGE_LOOP('',(#88));
#49=EDGE_LOOP('',(#89));
#50=EDGE_LOOP('',(#90));
#51=EDGE_LOOP('',(#91));
#52=EDGE_LOOP('',(#92));
#53=EDGE_LOOP('',(#93));
#54=CIRCLE('',#108,12.);
#55=CIRCLE('',#109,12.);
#56=CIRCLE('',#112,18.5);
#57=CIRCLE('',#113,16.);
#58=CIRCLE('',#115,15.5);
#59=CIRCLE('',#118,16.);
#60=CIRCLE('',#120,15.5);
#61=CIRCLE('',#122,19.);
#62=VERTEX_POINT('',#162);
#63=VERTEX_POINT('',#164);
#64=VERTEX_POINT('',#168);
#65=VERTEX_POINT('',#170);
#66=VERTEX_POINT('',#173);
#67=VERTEX_POINT('',#177);
#68=VERTEX_POINT('',#180);
#69=VERTEX_POINT('',#183);
#70=EDGE_CURVE('',#62,#62,#54,.T.);
#71=EDGE_CURVE('',#63,#63,#55,.T.);
#72=EDGE_CURVE('',#64,#64,#56,.T.);
#73=EDGE_CURVE('',#65,#65,#57,.T.);
#74=EDGE_CURVE('',#66,#66,#58,.T.);
#75=EDGE_CURVE('',#67,#67,#59,.T.);
#76=EDGE_CURVE('',#68,#68,#60,.T.);
#77=EDGE_CURVE('',#69,#69,#61,.T.);
#78=ORIENTED_EDGE('',*,*,#70,.T.);
#79=ORIENTED_EDGE('',*,*,#71,.F.);
#80=ORIENTED_EDGE('',*,*,#70,.F.);
#81=ORIENTED_EDGE('',*,*,#72,.T.);
#82=ORIENTED_EDGE('',*,*,#73,.T.);
#83=ORIENTED_EDGE('',*,*,#74,.F.);
#84=ORIENTED_EDGE('',*,*,#71,.T.);
#85=ORIENTED_EDGE('',*,*,#72,.F.);
#86=ORIENTED_EDGE('',*,*,#74,.T.);
#87=ORIENTED_EDGE('',*,*,#73,.F.);
#88=ORIENTED_EDGE('',*,*,#75,.F.);
#89=ORIENTED_EDGE('',*,*,#76,.F.);
#90=ORIENTED_EDGE('',*,*,#76,.T.);
#91=ORIENTED_EDGE('',*,*,#77,.F.);
#92=ORIENTED_EDGE('',*,*,#77,.T.);
#93=ORIENTED_EDGE('',*,*,#75,.T.);
#94=CYLINDRICAL_SURFACE('',#107,12.);
#95=CYLINDRICAL_SURFACE('',#117,16.);
#96=ADVANCED_FACE('',(#29,#22),#94,.F.);
#97=ADVANCED_FACE('',(#30),#17,.F.);
#98=ADVANCED_FACE('',(#31,#23),#18,.T.);
#99=ADVANCED_FACE('',(#32,#24),#19,.T.);
#100=ADVANCED_FACE('',(#33,#25),#15,.T.);
#101=ADVANCED_FACE('',(#34,#26),#95,.T.);
#102=ADVANCED_FACE('',(#35),#20,.T.);
#103=ADVANCED_FACE('',(#36,#27),#16,.T.);
#104=ADVANCED_FACE('',(#37,#28),#21,.T.);
#105=CLOSED_SHELL('',(#96,#97,#98,#99,#100,#101,#102,#103,#104));
#106=AXIS2_PLACEMENT_3D('placement',#160,#124,#125);
#107=AXIS2_PLACEMENT_3D('',#161,#126,#127);
#108=AXIS2_PLACEMENT_3D('',#163,#128,#129);
#109=AXIS2_PLACEMENT_3D('',#165,#130,#131);
#110=AXIS2_PLACEMENT_3D('',#166,#132,#133);
#111=AXIS2_PLACEMENT_3D('',#167,#134,#135);
#112=AXIS2_PLACEMENT_3D('',#169,#136,#137);
#113=AXIS2_PLACEMENT_3D('',#171,#138,#139);
#114=AXIS2_PLACEMENT_3D('',#172,#140,#141);
#115=AXIS2_PLACEMENT_3D('',#174,#142,#143);
#116=AXIS2_PLACEMENT_3D('',#175,#144,#145);
#117=AXIS2_PLACEMENT_3D('',#176,#146,#147);
#118=AXIS2_PLACEMENT_3D('',#178,#148,#149);
#119=AXIS2_PLACEMENT_3D('',#179,#150,#151);
#120=AXIS2_PLACEMENT_3D('',#181,#152,#153);
#121=AXIS2_PLACEMENT_3D('',#182,#154,#155);
#122=AXIS2_PLACEMENT_3D('',#184,#156,#157);
#123=AXIS2_PLACEMENT_3D('',#185,#158,#159);
#124=DIRECTION('axis',(0.,0.,1.));
#125=DIRECTION('refdir',(1.,0.,0.));
#126=DIRECTION('center_axis',(0.,1.,0.));
#127=DIRECTION('ref_axis',(-1.,0.,0.));
#128=DIRECTION('center_axis',(0.,1.,0.));
#129=DIRECTION('ref_axis',(-1.,0.,0.));
#130=DIRECTION('center_axis',(0.,1.,0.));
#131=DIRECTION('ref_axis',(-1.,0.,0.));
#132=DIRECTION('center_axis',(0.,1.,0.));
#133=DIRECTION('ref_axis',(0.,0.,1.));
#134=DIRECTION('center_axis',(0.,1.,0.));
#135=DIRECTION('ref_axis',(0.,0.,1.));
#136=DIRECTION('center_axis',(0.,1.,0.));
#137=DIRECTION('ref_axis',(1.,0.,0.));
#138=DIRECTION('center_axis',(1.83697019872103E-16,-1.,0.));
#139=DIRECTION('ref_axis',(-1.,-1.83697019872103E-16,0.));
#140=DIRECTION('center_axis',(0.,-1.,0.));
#141=DIRECTION('ref_axis',(0.,0.,-1.));
#142=DIRECTION('center_axis',(0.,1.,0.));
#143=DIRECTION('ref_axis',(1.,0.,0.));
#144=DIRECTION('center_axis',(0.,1.,0.));
#145=DIRECTION('ref_axis',(0.,0.,1.));
#146=DIRECTION('center_axis',(0.,-1.,0.));
#147=DIRECTION('ref_axis',(-1.,0.,0.));
#148=DIRECTION('center_axis',(-1.83697019872103E-16,1.,0.));
#149=DIRECTION('ref_axis',(-1.,0.,0.));
#150=DIRECTION('center_axis',(-1.83697019872103E-16,1.,0.));
#151=DIRECTION('ref_axis',(0.,0.,1.));
#152=DIRECTION('center_axis',(1.83697019872103E-16,-1.,0.));
#153=DIRECTION('ref_axis',(1.,1.83697019872103E-16,0.));
#154=DIRECTION('center_axis',(1.83697019872103E-16,-1.,0.));
#155=DIRECTION('ref_axis',(0.,0.,-1.));
#156=DIRECTION('center_axis',(1.83697019872103E-16,-1.,0.));
#157=DIRECTION('ref_axis',(1.,1.83697019872103E-16,0.));
#158=DIRECTION('center_axis',(1.83697019872103E-16,-1.,0.));
#159=DIRECTION('ref_axis',(0.,0.,-1.));
#160=CARTESIAN_POINT('',(0.,0.,0.));
#161=CARTESIAN_POINT('Origin',(0.,-6.,0.));
#162=CARTESIAN_POINT('',(12.,2.,1.46957615897682E-15));
#163=CARTESIAN_POINT('Origin',(0.,2.,0.));
#164=CARTESIAN_POINT('',(12.,-6.,1.46957615897682E-15));
#165=CARTESIAN_POINT('Origin',(0.,-6.,0.));
#166=CARTESIAN_POINT('Origin',(-7.39255249150933E-16,2.,-3.08395284618099E-16));
#167=CARTESIAN_POINT('Origin',(0.,-2.,0.));
#168=CARTESIAN_POINT('',(0.,-2.,18.5));
#169=CARTESIAN_POINT('Origin',(0.,-2.,0.));
#170=CARTESIAN_POINT('',(16.,-2.,1.95943487863577E-15));
#171=CARTESIAN_POINT('Origin',(0.,-2.,0.));
#172=CARTESIAN_POINT('Origin',(0.,-6.,15.5));
#173=CARTESIAN_POINT('',(0.,-6.,15.5));
#174=CARTESIAN_POINT('Origin',(0.,-6.,0.));
#175=CARTESIAN_POINT('Origin',(0.,-2.875,0.));
#176=CARTESIAN_POINT('Origin',(0.,0.,0.));
#177=CARTESIAN_POINT('',(16.,2.93915231795365E-15,1.95943487863577E-15));
#178=CARTESIAN_POINT('Origin',(0.,0.,0.));
#179=CARTESIAN_POINT('Origin',(15.5,4.,0.));
#180=CARTESIAN_POINT('',(15.5,4.,0.));
#181=CARTESIAN_POINT('Origin',(-7.34788079488411E-16,4.,0.));
#182=CARTESIAN_POINT('Origin',(-8.61079780650476E-17,0.468749999999997,
0.));
#183=CARTESIAN_POINT('',(19.,0.,0.));
#184=CARTESIAN_POINT('Origin',(6.41147307087944E-31,-3.49024337756996E-15,
0.));
#185=CARTESIAN_POINT('Origin',(0.,0.,0.));
#186=UNCERTAINTY_MEASURE_WITH_UNIT(LENGTH_MEASURE(0.01),#190,
'DISTANCE_ACCURACY_VALUE',
'Maximum model space distance between geometric entities at asserted c
onnectivities');
#187=UNCERTAINTY_MEASURE_WITH_UNIT(LENGTH_MEASURE(1.E-6),#190,
'DISTANCE_ACCURACY_VALUE',
'Maximum model space distance between geometric entities at asserted c
onnectivities');
#188=(
GEOMETRIC_REPRESENTATION_CONTEXT(3)
GLOBAL_UNCERTAINTY_ASSIGNED_CONTEXT((#186))
GLOBAL_UNIT_ASSIGNED_CONTEXT((#190,#193,#191))
REPRESENTATION_CONTEXT('','3D')
);
#189=(
GEOMETRIC_REPRESENTATION_CONTEXT(3)
GLOBAL_UNCERTAINTY_ASSIGNED_CONTEXT((#187))
GLOBAL_UNIT_ASSIGNED_CONTEXT((#190,#193,#191))
REPRESENTATION_CONTEXT('','3D')
);
#190=(
LENGTH_UNIT()
NAMED_UNIT(*)
SI_UNIT(.MILLI.,.METRE.)
);
#191=(
NAMED_UNIT(*)
SI_UNIT($,.STERADIAN.)
SOLID_ANGLE_UNIT()
);
#192=DIMENSIONAL_EXPONENTS(0.,0.,0.,0.,0.,0.,0.);
#193=(
CONVERSION_BASED_UNIT('degree',#195)
NAMED_UNIT(#192)
PLANE_ANGLE_UNIT()
);
#194=(
NAMED_UNIT(*)
PLANE_ANGLE_UNIT()
SI_UNIT($,.RADIAN.)
);
#195=PLANE_ANGLE_MEASURE_WITH_UNIT(PLANE_ANGLE_MEASURE(0.01745329252),#194);
#196=SHAPE_DEFINITION_REPRESENTATION(#197,#198);
#197=PRODUCT_DEFINITION_SHAPE('',$,#200);
#198=SHAPE_REPRESENTATION('',(#106),#188);
#199=PRODUCT_DEFINITION_CONTEXT('part definition',#204,'design');
#200=PRODUCT_DEFINITION('DR_PR3-32','DR_PR3-32',#201,#199);
#201=PRODUCT_DEFINITION_FORMATION('',$,#206);
#202=PRODUCT_RELATED_PRODUCT_CATEGORY('DR_PR3-32','DR_PR3-32',(#206));
#203=APPLICATION_PROTOCOL_DEFINITION('international standard',
'automotive_design',2009,#204);
#204=APPLICATION_CONTEXT(
'Core Data for Automotive Mechanical Design Process');
#205=PRODUCT_CONTEXT('part definition',#204,'mechanical');
#206=PRODUCT('DR_PR3-32','DR_PR3-32',$,(#205));
#207=PRESENTATION_STYLE_ASSIGNMENT((#208));
#208=SURFACE_STYLE_USAGE(.BOTH.,#209);
#209=SURFACE_SIDE_STYLE($,(#210));
#210=SURFACE_STYLE_FILL_AREA(#211);
#211=FILL_AREA_STYLE($,(#212));
#212=FILL_AREA_STYLE_COLOUR($,#213);
#213=COLOUR_RGB('',1.,1.,1.);
ENDSEC;
END-ISO-10303-21;
