ISO-10303-21;
HEADER;
/* Generated by software containing ST-Developer
 * from STEP Tools, Inc. (www.steptools.com) 
 */

FILE_DESCRIPTION(
/* description */ (''),
/* implementation_level */ '2;1');

FILE_NAME(
/* name */ '\\\\SYNOLOGYNAS\\web\\db2\\PR3-18\\\X2\B3C4BA74\X0\\\PR3-1
8.stp',
/* time_stamp */ '2024-11-22T07:51:57+09:00',
/* author */ ('user'),
/* organization */ (''),
/* preprocessor_version */ 'ST-DEVELOPER v15.6',
/* originating_system */ 'Autodesk Inventor 2015',
/* authorisation */ '');

FILE_SCHEMA (('AUTOMOTIVE_DESIGN { 1 0 10303 214 3 1 1 }'));
ENDSEC;

DATA;
#10=MECHANICAL_DESIGN_GEOMETRIC_PRESENTATION_REPRESENTATION('',(#13),#249);
#11=SHAPE_REPRESENTATION_RELATIONSHIP('SRR','None',#258,#12);
#12=ADVANCED_BREP_SHAPE_REPRESENTATION($,(#14),#248);
#13=STYLED_ITEM('',(#267),#14);
#14=MANIFOLD_SOLID_BREP('\X2\C194B9ACB4DC\X0\1',#138);
#15=PLANE('',#145);
#16=PLANE('',#147);
#17=PLANE('',#157);
#18=PLANE('',#158);
#19=PLANE('',#162);
#20=CYLINDRICAL_SURFACE('',#143,6.5);
#21=CYLINDRICAL_SURFACE('',#150,11.25);
#22=CYLINDRICAL_SURFACE('',#155,12.5);
#23=CYLINDRICAL_SURFACE('',#160,8.6);
#24=FACE_BOUND('',#47,.T.);
#25=FACE_BOUND('',#49,.T.);
#26=FACE_BOUND('',#51,.T.);
#27=FACE_BOUND('',#54,.T.);
#28=FACE_BOUND('',#56,.T.);
#29=FACE_BOUND('',#58,.T.);
#30=FACE_BOUND('',#60,.T.);
#31=FACE_BOUND('',#63,.T.);
#32=FACE_BOUND('',#65,.T.);
#33=FACE_BOUND('',#67,.T.);
#34=FACE_OUTER_BOUND('',#46,.T.);
#35=FACE_OUTER_BOUND('',#48,.T.);
#36=FACE_OUTER_BOUND('',#50,.T.);
#37=FACE_OUTER_BOUND('',#52,.T.);
#38=FACE_OUTER_BOUND('',#53,.T.);
#39=FACE_OUTER_BOUND('',#55,.T.);
#40=FACE_OUTER_BOUND('',#57,.T.);
#41=FACE_OUTER_BOUND('',#59,.T.);
#42=FACE_OUTER_BOUND('',#61,.T.);
#43=FACE_OUTER_BOUND('',#62,.T.);
#44=FACE_OUTER_BOUND('',#64,.T.);
#45=FACE_OUTER_BOUND('',#66,.T.);
#46=EDGE_LOOP('',(#101));
#47=EDGE_LOOP('',(#102));
#48=EDGE_LOOP('',(#103));
#49=EDGE_LOOP('',(#104));
#50=EDGE_LOOP('',(#105));
#51=EDGE_LOOP('',(#106));
#52=EDGE_LOOP('',(#107));
#53=EDGE_LOOP('',(#108));
#54=EDGE_LOOP('',(#109));
#55=EDGE_LOOP('',(#110));
#56=EDGE_LOOP('',(#111));
#57=EDGE_LOOP('',(#112));
#58=EDGE_LOOP('',(#113));
#59=EDGE_LOOP('',(#114));
#60=EDGE_LOOP('',(#115));
#61=EDGE_LOOP('',(#116));
#62=EDGE_LOOP('',(#117));
#63=EDGE_LOOP('',(#118));
#64=EDGE_LOOP('',(#119));
#65=EDGE_LOOP('',(#120));
#66=EDGE_LOOP('',(#121));
#67=EDGE_LOOP('',(#122));
#68=CIRCLE('',#141,6.5);
#69=CIRCLE('',#142,7.);
#70=CIRCLE('',#144,6.5);
#71=CIRCLE('',#146,10.25);
#72=CIRCLE('',#149,11.25);
#73=CIRCLE('',#151,11.25);
#74=CIRCLE('',#153,11.5);
#75=CIRCLE('',#154,12.5);
#76=CIRCLE('',#156,12.5);
#77=CIRCLE('',#159,8.6);
#78=CIRCLE('',#161,8.6);
#79=VERTEX_POINT('',#213);
#80=VERTEX_POINT('',#215);
#81=VERTEX_POINT('',#218);
#82=VERTEX_POINT('',#221);
#83=VERTEX_POINT('',#225);
#84=VERTEX_POINT('',#228);
#85=VERTEX_POINT('',#231);
#86=VERTEX_POINT('',#233);
#87=VERTEX_POINT('',#236);
#88=VERTEX_POINT('',#240);
#89=VERTEX_POINT('',#243);
#90=EDGE_CURVE('',#79,#79,#68,.T.);
#91=EDGE_CURVE('',#80,#80,#69,.T.);
#92=EDGE_CURVE('',#81,#81,#70,.T.);
#93=EDGE_CURVE('',#82,#82,#71,.T.);
#94=EDGE_CURVE('',#83,#83,#72,.T.);
#95=EDGE_CURVE('',#84,#84,#73,.T.);
#96=EDGE_CURVE('',#85,#85,#74,.T.);
#97=EDGE_CURVE('',#86,#86,#75,.T.);
#98=EDGE_CURVE('',#87,#87,#76,.T.);
#99=EDGE_CURVE('',#88,#88,#77,.T.);
#100=EDGE_CURVE('',#89,#89,#78,.T.);
#101=ORIENTED_EDGE('',*,*,#90,.T.);
#102=ORIENTED_EDGE('',*,*,#91,.T.);
#103=ORIENTED_EDGE('',*,*,#92,.T.);
#104=ORIENTED_EDGE('',*,*,#90,.F.);
#105=ORIENTED_EDGE('',*,*,#93,.F.);
#106=ORIENTED_EDGE('',*,*,#91,.F.);
#107=ORIENTED_EDGE('',*,*,#92,.F.);
#108=ORIENTED_EDGE('',*,*,#94,.T.);
#109=ORIENTED_EDGE('',*,*,#93,.T.);
#110=ORIENTED_EDGE('',*,*,#95,.T.);
#111=ORIENTED_EDGE('',*,*,#94,.F.);
#112=ORIENTED_EDGE('',*,*,#96,.T.);
#113=ORIENTED_EDGE('',*,*,#97,.T.);
#114=ORIENTED_EDGE('',*,*,#98,.F.);
#115=ORIENTED_EDGE('',*,*,#97,.F.);
#116=ORIENTED_EDGE('',*,*,#96,.F.);
#117=ORIENTED_EDGE('',*,*,#98,.T.);
#118=ORIENTED_EDGE('',*,*,#99,.F.);
#119=ORIENTED_EDGE('',*,*,#100,.F.);
#120=ORIENTED_EDGE('',*,*,#99,.T.);
#121=ORIENTED_EDGE('',*,*,#95,.F.);
#122=ORIENTED_EDGE('',*,*,#100,.T.);
#123=TOROIDAL_SURFACE('',#140,7.,0.5);
#124=TOROIDAL_SURFACE('',#148,10.25,1.);
#125=TOROIDAL_SURFACE('',#152,11.5,1.);
#126=ADVANCED_FACE('',(#34,#24),#123,.T.);
#127=ADVANCED_FACE('',(#35,#25),#20,.F.);
#128=ADVANCED_FACE('',(#36,#26),#15,.T.);
#129=ADVANCED_FACE('',(#37),#16,.T.);
#130=ADVANCED_FACE('',(#38,#27),#124,.T.);
#131=ADVANCED_FACE('',(#39,#28),#21,.T.);
#132=ADVANCED_FACE('',(#40,#29),#125,.T.);
#133=ADVANCED_FACE('',(#41,#30),#22,.T.);
#134=ADVANCED_FACE('',(#42),#17,.T.);
#135=ADVANCED_FACE('',(#43,#31),#18,.T.);
#136=ADVANCED_FACE('',(#44,#32),#23,.T.);
#137=ADVANCED_FACE('',(#45,#33),#19,.T.);
#138=CLOSED_SHELL('',(#126,#127,#128,#129,#130,#131,#132,#133,#134,#135,
#136,#137));
#139=AXIS2_PLACEMENT_3D('placement',#211,#163,#164);
#140=AXIS2_PLACEMENT_3D('',#212,#165,#166);
#141=AXIS2_PLACEMENT_3D('',#214,#167,#168);
#142=AXIS2_PLACEMENT_3D('',#216,#169,#170);
#143=AXIS2_PLACEMENT_3D('',#217,#171,#172);
#144=AXIS2_PLACEMENT_3D('',#219,#173,#174);
#145=AXIS2_PLACEMENT_3D('',#220,#175,#176);
#146=AXIS2_PLACEMENT_3D('',#222,#177,#178);
#147=AXIS2_PLACEMENT_3D('',#223,#179,#180);
#148=AXIS2_PLACEMENT_3D('',#224,#181,#182);
#149=AXIS2_PLACEMENT_3D('',#226,#183,#184);
#150=AXIS2_PLACEMENT_3D('',#227,#185,#186);
#151=AXIS2_PLACEMENT_3D('',#229,#187,#188);
#152=AXIS2_PLACEMENT_3D('',#230,#189,#190);
#153=AXIS2_PLACEMENT_3D('',#232,#191,#192);
#154=AXIS2_PLACEMENT_3D('',#234,#193,#194);
#155=AXIS2_PLACEMENT_3D('',#235,#195,#196);
#156=AXIS2_PLACEMENT_3D('',#237,#197,#198);
#157=AXIS2_PLACEMENT_3D('',#238,#199,#200);
#158=AXIS2_PLACEMENT_3D('',#239,#201,#202);
#159=AXIS2_PLACEMENT_3D('',#241,#203,#204);
#160=AXIS2_PLACEMENT_3D('',#242,#205,#206);
#161=AXIS2_PLACEMENT_3D('',#244,#207,#208);
#162=AXIS2_PLACEMENT_3D('',#245,#209,#210);
#163=DIRECTION('axis',(0.,0.,1.));
#164=DIRECTION('refdir',(1.,0.,0.));
#165=DIRECTION('center_axis',(1.85037170770859E-16,0.,1.));
#166=DIRECTION('ref_axis',(1.,0.,-1.1842378929335E-16));
#167=DIRECTION('center_axis',(1.85037170770859E-16,0.,1.));
#168=DIRECTION('ref_axis',(1.,0.,-1.81478763640651E-16));
#169=DIRECTION('center_axis',(-1.85037170770859E-16,0.,-1.));
#170=DIRECTION('ref_axis',(1.,0.,-1.85037170770859E-16));
#171=DIRECTION('center_axis',(1.98254111540207E-16,0.,1.));
#172=DIRECTION('ref_axis',(1.,0.,-1.98254111540207E-16));
#173=DIRECTION('center_axis',(1.85037170770859E-16,0.,1.));
#174=DIRECTION('ref_axis',(1.,0.,-1.85037170770859E-16));
#175=DIRECTION('center_axis',(-1.85037170770859E-16,0.,-1.));
#176=DIRECTION('ref_axis',(-1.,0.,1.77635683940025E-16));
#177=DIRECTION('center_axis',(1.85037170770859E-16,0.,1.));
#178=DIRECTION('ref_axis',(1.,0.,-1.85037170770859E-16));
#179=DIRECTION('center_axis',(-1.85037170770859E-16,0.,-1.));
#180=DIRECTION('ref_axis',(-1.,0.,1.83186799063151E-16));
#181=DIRECTION('center_axis',(-1.85037170770859E-16,0.,-1.));
#182=DIRECTION('ref_axis',(-1.,0.,1.57898385724467E-16));
#183=DIRECTION('center_axis',(-1.85037170770859E-16,0.,-1.));
#184=DIRECTION('ref_axis',(1.,0.,-1.85037170770859E-16));
#185=DIRECTION('center_axis',(-1.85037170770859E-16,0.,-1.));
#186=DIRECTION('ref_axis',(-1.,0.,2.04487794139683E-16));
#187=DIRECTION('center_axis',(-1.85037170770859E-16,0.,-1.));
#188=DIRECTION('ref_axis',(1.,0.,-1.85037170770859E-16));
#189=DIRECTION('center_axis',(-1.85037170770859E-16,0.,-1.));
#190=DIRECTION('ref_axis',(-1.,0.,1.95399252334028E-16));
#191=DIRECTION('center_axis',(-1.85037170770859E-16,0.,-1.));
#192=DIRECTION('ref_axis',(1.,0.,-1.85037170770859E-16));
#193=DIRECTION('center_axis',(1.85037170770859E-16,0.,1.));
#194=DIRECTION('ref_axis',(1.,0.,-1.88737914186277E-16));
#195=DIRECTION('center_axis',(-1.85037170770859E-16,0.,-1.));
#196=DIRECTION('ref_axis',(-1.,0.,2.04487794139683E-16));
#197=DIRECTION('center_axis',(-1.85037170770859E-16,0.,-1.));
#198=DIRECTION('ref_axis',(1.,0.,-1.85037170770859E-16));
#199=DIRECTION('center_axis',(1.85037170770859E-16,0.,1.));
#200=DIRECTION('ref_axis',(1.,0.,-1.85037170770859E-16));
#201=DIRECTION('center_axis',(-1.85037170770859E-16,0.,-1.));
#202=DIRECTION('ref_axis',(-1.,0.,1.77635683940025E-16));
#203=DIRECTION('center_axis',(-1.85037170770859E-16,0.,-1.));
#204=DIRECTION('ref_axis',(1.,0.,-1.85037170770859E-16));
#205=DIRECTION('center_axis',(-1.85037170770859E-16,0.,-1.));
#206=DIRECTION('ref_axis',(-1.,0.,2.04487794139683E-16));
#207=DIRECTION('center_axis',(-1.85037170770859E-16,0.,-1.));
#208=DIRECTION('ref_axis',(1.,0.,-1.85037170770859E-16));
#209=DIRECTION('center_axis',(1.85037170770859E-16,0.,1.));
#210=DIRECTION('ref_axis',(1.,0.,-2.22044604925031E-16));
#211=CARTESIAN_POINT('',(0.,0.,0.));
#212=CARTESIAN_POINT('Origin',(-1.01109596885505E-15,0.,-5.5));
#213=CARTESIAN_POINT('',(-6.5,-7.9602041944578E-16,-5.5));
#214=CARTESIAN_POINT('Origin',(-1.01109596885505E-15,0.,-5.5));
#215=CARTESIAN_POINT('',(-7.,8.57252759403147E-16,-6.));
#216=CARTESIAN_POINT('Origin',(-1.10361455424048E-15,0.,-6.));
#217=CARTESIAN_POINT('Origin',(-1.11022302462516E-15,0.,-6.));
#218=CARTESIAN_POINT('',(-6.5,7.9602041944578E-16,-0.400000000000003));
#219=CARTESIAN_POINT('Origin',(1.23259516440783E-31,0.,-0.400000000000004));
#220=CARTESIAN_POINT('Origin',(0.,0.,-6.));
#221=CARTESIAN_POINT('',(-10.25,-1.25526296912604E-15,-6.));
#222=CARTESIAN_POINT('Origin',(-1.11022302462516E-15,0.,-6.));
#223=CARTESIAN_POINT('Origin',(2.4094756099672E-16,0.,-0.400000000000004));
#224=CARTESIAN_POINT('Origin',(-9.25185853854297E-16,0.,-5.));
#225=CARTESIAN_POINT('',(-11.25,1.37772764904077E-15,-5.));
#226=CARTESIAN_POINT('Origin',(-9.25185853854297E-16,0.,-5.));
#227=CARTESIAN_POINT('Origin',(-9.25185853854297E-16,0.,-5.));
#228=CARTESIAN_POINT('',(-11.25,0.,-4.));
#229=CARTESIAN_POINT('Origin',(-7.40148683083437E-16,0.,-4.));
#230=CARTESIAN_POINT('Origin',(-1.8503717077086E-16,0.,-1.));
#231=CARTESIAN_POINT('',(-11.5,1.40834381901946E-15,-2.31296463463575E-16));
#232=CARTESIAN_POINT('Origin',(-3.38963670212154E-31,0.,-2.35922392732846E-15));
#233=CARTESIAN_POINT('',(-12.5,-1.53080849893419E-15,-1.));
#234=CARTESIAN_POINT('Origin',(-1.8503717077086E-16,0.,-1.));
#235=CARTESIAN_POINT('Origin',(-1.8503717077086E-16,0.,-1.));
#236=CARTESIAN_POINT('',(-12.5,0.,-2.));
#237=CARTESIAN_POINT('Origin',(-3.70074341541719E-16,0.,-2.));
#238=CARTESIAN_POINT('Origin',(-12.5,0.,0.));
#239=CARTESIAN_POINT('Origin',(-8.6,0.,-2.));
#240=CARTESIAN_POINT('',(-8.6,0.,-2.));
#241=CARTESIAN_POINT('Origin',(-3.70074341541719E-16,0.,-2.));
#242=CARTESIAN_POINT('Origin',(-5.55111512312578E-16,0.,-3.));
#243=CARTESIAN_POINT('',(-8.6,0.,-4.));
#244=CARTESIAN_POINT('Origin',(-7.40148683083438E-16,0.,-4.));
#245=CARTESIAN_POINT('Origin',(-11.25,0.,-4.));
#246=UNCERTAINTY_MEASURE_WITH_UNIT(LENGTH_MEASURE(0.01),#250,
'DISTANCE_ACCURACY_VALUE',
'Maximum model space distance between geometric entities at asserted c
onnectivities');
#247=UNCERTAINTY_MEASURE_WITH_UNIT(LENGTH_MEASURE(1.E-6),#250,
'DISTANCE_ACCURACY_VALUE',
'Maximum model space distance between geometric entities at asserted c
onnectivities');
#248=(
GEOMETRIC_REPRESENTATION_CONTEXT(3)
GLOBAL_UNCERTAINTY_ASSIGNED_CONTEXT((#246))
GLOBAL_UNIT_ASSIGNED_CONTEXT((#250,#253,#251))
REPRESENTATION_CONTEXT('','3D')
);
#249=(
GEOMETRIC_REPRESENTATION_CONTEXT(3)
GLOBAL_UNCERTAINTY_ASSIGNED_CONTEXT((#247))
GLOBAL_UNIT_ASSIGNED_CONTEXT((#250,#253,#251))
REPRESENTATION_CONTEXT('','3D')
);
#250=(
LENGTH_UNIT()
NAMED_UNIT(*)
SI_UNIT(.MILLI.,.METRE.)
);
#251=(
NAMED_UNIT(*)
SI_UNIT($,.STERADIAN.)
SOLID_ANGLE_UNIT()
);
#252=DIMENSIONAL_EXPONENTS(0.,0.,0.,0.,0.,0.,0.);
#253=(
CONVERSION_BASED_UNIT('degree',#255)
NAMED_UNIT(#252)
PLANE_ANGLE_UNIT()
);
#254=(
NAMED_UNIT(*)
PLANE_ANGLE_UNIT()
SI_UNIT($,.RADIAN.)
);
#255=PLANE_ANGLE_MEASURE_WITH_UNIT(PLANE_ANGLE_MEASURE(0.01745329252),#254);
#256=SHAPE_DEFINITION_REPRESENTATION(#257,#258);
#257=PRODUCT_DEFINITION_SHAPE('',$,#260);
#258=SHAPE_REPRESENTATION('',(#139),#248);
#259=PRODUCT_DEFINITION_CONTEXT('part definition',#264,'design');
#260=PRODUCT_DEFINITION('PR3-18','PR3-18',#261,#259);
#261=PRODUCT_DEFINITION_FORMATION('',$,#266);
#262=PRODUCT_RELATED_PRODUCT_CATEGORY('PR3-18','PR3-18',(#266));
#263=APPLICATION_PROTOCOL_DEFINITION('international standard',
'automotive_design',2009,#264);
#264=APPLICATION_CONTEXT(
'Core Data for Automotive Mechanical Design Process');
#265=PRODUCT_CONTEXT('part definition',#264,'mechanical');
#266=PRODUCT('PR3-18','PR3-18',$,(#265));
#267=PRESENTATION_STYLE_ASSIGNMENT((#268));
#268=SURFACE_STYLE_USAGE(.BOTH.,#269);
#269=SURFACE_SIDE_STYLE($,(#270));
#270=SURFACE_STYLE_FILL_AREA(#271);
#271=FILL_AREA_STYLE($,(#272));
#272=FILL_AREA_STYLE_COLOUR($,#273);
#273=COLOUR_RGB('',1.,1.,1.);
ENDSEC;
END-ISO-10303-21;
