ISO-10303-21;
HEADER;
/* Generated by software containing ST-Developer
 * from STEP Tools, Inc. (www.steptools.com) 
 */

FILE_DESCRIPTION(
/* description */ (''),
/* implementation_level */ '2;1');

FILE_NAME(
/* name */ '\\\\SYNOLOGYNAS\\web\\db2\\PR2-23-6T\\\X2\B3C4BA74\X0\\\PR
2-23-6T.stp',
/* time_stamp */ '2024-10-10T09:58:18+09:00',
/* author */ ('user'),
/* organization */ (''),
/* preprocessor_version */ 'ST-DEVELOPER v15.6',
/* originating_system */ 'Autodesk Inventor 2015',
/* authorisation */ '');

FILE_SCHEMA (('AUTOMOTIVE_DESIGN { 1 0 10303 214 3 1 1 }'));
ENDSEC;

DATA;
#10=MECHANICAL_DESIGN_GEOMETRIC_PRESENTATION_REPRESENTATION('',(#13),#203);
#11=SHAPE_REPRESENTATION_RELATIONSHIP('SRR','None',#212,#12);
#12=ADVANCED_BREP_SHAPE_REPRESENTATION($,(#14),#202);
#13=STYLED_ITEM('',(#221),#14);
#14=MANIFOLD_SOLID_BREP('\X2\C194B9ACB4DC\X0\1',#114);
#15=CYLINDRICAL_SURFACE('',#123,1.75);
#16=CYLINDRICAL_SURFACE('',#129,8.5);
#17=CYLINDRICAL_SURFACE('',#130,4.75);
#18=PLANE('',#119);
#19=PLANE('',#126);
#20=PLANE('',#132);
#21=PLANE('',#133);
#22=FACE_BOUND('',#41,.T.);
#23=FACE_BOUND('',#43,.T.);
#24=FACE_BOUND('',#45,.T.);
#25=FACE_BOUND('',#47,.T.);
#26=FACE_BOUND('',#49,.T.);
#27=FACE_BOUND('',#51,.T.);
#28=FACE_BOUND('',#53,.T.);
#29=FACE_BOUND('',#55,.T.);
#30=FACE_BOUND('',#57,.T.);
#31=FACE_OUTER_BOUND('',#40,.T.);
#32=FACE_OUTER_BOUND('',#42,.T.);
#33=FACE_OUTER_BOUND('',#44,.T.);
#34=FACE_OUTER_BOUND('',#46,.T.);
#35=FACE_OUTER_BOUND('',#48,.T.);
#36=FACE_OUTER_BOUND('',#50,.T.);
#37=FACE_OUTER_BOUND('',#52,.T.);
#38=FACE_OUTER_BOUND('',#54,.T.);
#39=FACE_OUTER_BOUND('',#56,.T.);
#40=EDGE_LOOP('',(#85));
#41=EDGE_LOOP('',(#86));
#42=EDGE_LOOP('',(#87));
#43=EDGE_LOOP('',(#88));
#44=EDGE_LOOP('',(#89));
#45=EDGE_LOOP('',(#90));
#46=EDGE_LOOP('',(#91));
#47=EDGE_LOOP('',(#92));
#48=EDGE_LOOP('',(#93));
#49=EDGE_LOOP('',(#94));
#50=EDGE_LOOP('',(#95));
#51=EDGE_LOOP('',(#96));
#52=EDGE_LOOP('',(#97));
#53=EDGE_LOOP('',(#98));
#54=EDGE_LOOP('',(#99));
#55=EDGE_LOOP('',(#100));
#56=EDGE_LOOP('',(#101));
#57=EDGE_LOOP('',(#102));
#58=CIRCLE('',#117,10.);
#59=CIRCLE('',#118,11.0791163009981);
#60=CIRCLE('',#120,8.5);
#61=CIRCLE('',#122,11.5);
#62=CIRCLE('',#124,1.75);
#63=CIRCLE('',#125,1.75);
#64=CIRCLE('',#127,8.5);
#65=CIRCLE('',#128,4.75);
#66=CIRCLE('',#131,4.75);
#67=VERTEX_POINT('',#174);
#68=VERTEX_POINT('',#176);
#69=VERTEX_POINT('',#179);
#70=VERTEX_POINT('',#182);
#71=VERTEX_POINT('',#185);
#72=VERTEX_POINT('',#187);
#73=VERTEX_POINT('',#190);
#74=VERTEX_POINT('',#192);
#75=VERTEX_POINT('',#196);
#76=EDGE_CURVE('',#67,#67,#58,.T.);
#77=EDGE_CURVE('',#68,#68,#59,.T.);
#78=EDGE_CURVE('',#69,#69,#60,.T.);
#79=EDGE_CURVE('',#70,#70,#61,.T.);
#80=EDGE_CURVE('',#71,#71,#62,.T.);
#81=EDGE_CURVE('',#72,#72,#63,.T.);
#82=EDGE_CURVE('',#73,#73,#64,.T.);
#83=EDGE_CURVE('',#74,#74,#65,.T.);
#84=EDGE_CURVE('',#75,#75,#66,.T.);
#85=ORIENTED_EDGE('',*,*,#76,.T.);
#86=ORIENTED_EDGE('',*,*,#77,.T.);
#87=ORIENTED_EDGE('',*,*,#76,.F.);
#88=ORIENTED_EDGE('',*,*,#78,.T.);
#89=ORIENTED_EDGE('',*,*,#79,.T.);
#90=ORIENTED_EDGE('',*,*,#77,.F.);
#91=ORIENTED_EDGE('',*,*,#80,.F.);
#92=ORIENTED_EDGE('',*,*,#81,.F.);
#93=ORIENTED_EDGE('',*,*,#82,.T.);
#94=ORIENTED_EDGE('',*,*,#83,.F.);
#95=ORIENTED_EDGE('',*,*,#78,.F.);
#96=ORIENTED_EDGE('',*,*,#82,.F.);
#97=ORIENTED_EDGE('',*,*,#83,.T.);
#98=ORIENTED_EDGE('',*,*,#84,.F.);
#99=ORIENTED_EDGE('',*,*,#84,.T.);
#100=ORIENTED_EDGE('',*,*,#81,.T.);
#101=ORIENTED_EDGE('',*,*,#79,.F.);
#102=ORIENTED_EDGE('',*,*,#80,.T.);
#103=CONICAL_SURFACE('',#116,10.5395581504991,47.2688862539534);
#104=CONICAL_SURFACE('',#121,11.5,4.53777250790666);
#105=ADVANCED_FACE('',(#31,#22),#103,.T.);
#106=ADVANCED_FACE('',(#32,#23),#18,.F.);
#107=ADVANCED_FACE('',(#33,#24),#104,.T.);
#108=ADVANCED_FACE('',(#34,#25),#15,.F.);
#109=ADVANCED_FACE('',(#35,#26),#19,.T.);
#110=ADVANCED_FACE('',(#36,#27),#16,.F.);
#111=ADVANCED_FACE('',(#37,#28),#17,.F.);
#112=ADVANCED_FACE('',(#38,#29),#20,.T.);
#113=ADVANCED_FACE('',(#39,#30),#21,.F.);
#114=CLOSED_SHELL('',(#105,#106,#107,#108,#109,#110,#111,#112,#113));
#115=AXIS2_PLACEMENT_3D('placement',#172,#134,#135);
#116=AXIS2_PLACEMENT_3D('',#173,#136,#137);
#117=AXIS2_PLACEMENT_3D('',#175,#138,#139);
#118=AXIS2_PLACEMENT_3D('',#177,#140,#141);
#119=AXIS2_PLACEMENT_3D('',#178,#142,#143);
#120=AXIS2_PLACEMENT_3D('',#180,#144,#145);
#121=AXIS2_PLACEMENT_3D('',#181,#146,#147);
#122=AXIS2_PLACEMENT_3D('',#183,#148,#149);
#123=AXIS2_PLACEMENT_3D('',#184,#150,#151);
#124=AXIS2_PLACEMENT_3D('',#186,#152,#153);
#125=AXIS2_PLACEMENT_3D('',#188,#154,#155);
#126=AXIS2_PLACEMENT_3D('',#189,#156,#157);
#127=AXIS2_PLACEMENT_3D('',#191,#158,#159);
#128=AXIS2_PLACEMENT_3D('',#193,#160,#161);
#129=AXIS2_PLACEMENT_3D('',#194,#162,#163);
#130=AXIS2_PLACEMENT_3D('',#195,#164,#165);
#131=AXIS2_PLACEMENT_3D('',#197,#166,#167);
#132=AXIS2_PLACEMENT_3D('',#198,#168,#169);
#133=AXIS2_PLACEMENT_3D('',#199,#170,#171);
#134=DIRECTION('axis',(0.,0.,1.));
#135=DIRECTION('refdir',(1.,0.,0.));
#136=DIRECTION('center_axis',(0.,-1.,6.80533420883082E-16));
#137=DIRECTION('ref_axis',(-1.,0.,3.21835225956701E-17));
#138=DIRECTION('center_axis',(0.,-1.,0.));
#139=DIRECTION('ref_axis',(-1.,0.,0.));
#140=DIRECTION('center_axis',(0.,1.,0.));
#141=DIRECTION('ref_axis',(-1.,0.,6.12323399573677E-17));
#142=DIRECTION('center_axis',(0.,-1.,0.));
#143=DIRECTION('ref_axis',(0.,0.,-1.));
#144=DIRECTION('center_axis',(0.,-1.,0.));
#145=DIRECTION('ref_axis',(-1.,0.,0.));
#146=DIRECTION('center_axis',(0.,-1.,0.));
#147=DIRECTION('ref_axis',(1.,0.,0.));
#148=DIRECTION('center_axis',(0.,1.,0.));
#149=DIRECTION('ref_axis',(1.,0.,0.));
#150=DIRECTION('center_axis',(0.,1.,0.));
#151=DIRECTION('ref_axis',(-1.,0.,0.));
#152=DIRECTION('center_axis',(0.,1.,0.));
#153=DIRECTION('ref_axis',(-1.,0.,0.));
#154=DIRECTION('center_axis',(0.,-1.,0.));
#155=DIRECTION('ref_axis',(-1.,0.,0.));
#156=DIRECTION('center_axis',(0.,1.,0.));
#157=DIRECTION('ref_axis',(-1.,0.,0.));
#158=DIRECTION('center_axis',(0.,1.,0.));
#159=DIRECTION('ref_axis',(-1.,0.,0.));
#160=DIRECTION('center_axis',(0.,1.,0.));
#161=DIRECTION('ref_axis',(-1.,0.,0.));
#162=DIRECTION('center_axis',(0.,1.,0.));
#163=DIRECTION('ref_axis',(-1.,0.,0.));
#164=DIRECTION('center_axis',(0.,1.,0.));
#165=DIRECTION('ref_axis',(-1.,0.,0.));
#166=DIRECTION('center_axis',(0.,1.,0.));
#167=DIRECTION('ref_axis',(-1.,0.,0.));
#168=DIRECTION('center_axis',(0.,1.,0.));
#169=DIRECTION('ref_axis',(-1.,0.,0.));
#170=DIRECTION('center_axis',(0.,1.,0.));
#171=DIRECTION('ref_axis',(0.,0.,1.));
#172=CARTESIAN_POINT('',(0.,0.,0.));
#173=CARTESIAN_POINT('Origin',(0.,5.80156730371183,3.39200107884965E-16));
#174=CARTESIAN_POINT('',(10.,6.3,1.22464679914735E-15));
#175=CARTESIAN_POINT('Origin',(0.,6.3,0.));
#176=CARTESIAN_POINT('',(11.0791163009981,5.30313460742366,-1.35680043153986E-15));
#177=CARTESIAN_POINT('Origin',(0.,5.30313460742366,6.78400215769931E-16));
#178=CARTESIAN_POINT('Origin',(0.,6.3,0.));
#179=CARTESIAN_POINT('',(-8.5,6.3,0.));
#180=CARTESIAN_POINT('Origin',(0.,6.3,0.));
#181=CARTESIAN_POINT('Origin',(0.,0.,0.));
#182=CARTESIAN_POINT('',(11.5,0.,0.));
#183=CARTESIAN_POINT('Origin',(0.,0.,0.));
#184=CARTESIAN_POINT('Origin',(0.,-29.8314050411388,0.));
#185=CARTESIAN_POINT('',(1.75,0.,-2.14313189850787E-16));
#186=CARTESIAN_POINT('Origin',(0.,0.,0.));
#187=CARTESIAN_POINT('',(-1.75,3.3,0.));
#188=CARTESIAN_POINT('Origin',(0.,3.3,0.));
#189=CARTESIAN_POINT('Origin',(0.,5.3,0.));
#190=CARTESIAN_POINT('',(-8.5,5.3,0.));
#191=CARTESIAN_POINT('Origin',(0.,5.3,0.));
#192=CARTESIAN_POINT('',(4.75,5.3,-5.81707229594993E-16));
#193=CARTESIAN_POINT('Origin',(0.,5.3,0.));
#194=CARTESIAN_POINT('Origin',(0.,5.8,0.));
#195=CARTESIAN_POINT('Origin',(0.,4.8,0.));
#196=CARTESIAN_POINT('',(-4.75,3.3,0.));
#197=CARTESIAN_POINT('Origin',(0.,3.3,0.));
#198=CARTESIAN_POINT('Origin',(0.,3.3,0.));
#199=CARTESIAN_POINT('Origin',(0.,0.,0.));
#200=UNCERTAINTY_MEASURE_WITH_UNIT(LENGTH_MEASURE(0.01),#204,
'DISTANCE_ACCURACY_VALUE',
'Maximum model space distance between geometric entities at asserted c
onnectivities');
#201=UNCERTAINTY_MEASURE_WITH_UNIT(LENGTH_MEASURE(1.E-6),#204,
'DISTANCE_ACCURACY_VALUE',
'Maximum model space distance between geometric entities at asserted c
onnectivities');
#202=(
GEOMETRIC_REPRESENTATION_CONTEXT(3)
GLOBAL_UNCERTAINTY_ASSIGNED_CONTEXT((#200))
GLOBAL_UNIT_ASSIGNED_CONTEXT((#204,#207,#205))
REPRESENTATION_CONTEXT('','3D')
);
#203=(
GEOMETRIC_REPRESENTATION_CONTEXT(3)
GLOBAL_UNCERTAINTY_ASSIGNED_CONTEXT((#201))
GLOBAL_UNIT_ASSIGNED_CONTEXT((#204,#207,#205))
REPRESENTATION_CONTEXT('','3D')
);
#204=(
LENGTH_UNIT()
NAMED_UNIT(*)
SI_UNIT(.MILLI.,.METRE.)
);
#205=(
NAMED_UNIT(*)
SI_UNIT($,.STERADIAN.)
SOLID_ANGLE_UNIT()
);
#206=DIMENSIONAL_EXPONENTS(0.,0.,0.,0.,0.,0.,0.);
#207=(
CONVERSION_BASED_UNIT('degree',#209)
NAMED_UNIT(#206)
PLANE_ANGLE_UNIT()
);
#208=(
NAMED_UNIT(*)
PLANE_ANGLE_UNIT()
SI_UNIT($,.RADIAN.)
);
#209=PLANE_ANGLE_MEASURE_WITH_UNIT(PLANE_ANGLE_MEASURE(0.01745329252),#208);
#210=SHAPE_DEFINITION_REPRESENTATION(#211,#212);
#211=PRODUCT_DEFINITION_SHAPE('',$,#214);
#212=SHAPE_REPRESENTATION('',(#115),#202);
#213=PRODUCT_DEFINITION_CONTEXT('part definition',#218,'design');
#214=PRODUCT_DEFINITION('PR2-23-6T','PR2-23-6T',#215,#213);
#215=PRODUCT_DEFINITION_FORMATION('',$,#220);
#216=PRODUCT_RELATED_PRODUCT_CATEGORY('PR2-23-6T','PR2-23-6T',(#220));
#217=APPLICATION_PROTOCOL_DEFINITION('international standard',
'automotive_design',2009,#218);
#218=APPLICATION_CONTEXT(
'Core Data for Automotive Mechanical Design Process');
#219=PRODUCT_CONTEXT('part definition',#218,'mechanical');
#220=PRODUCT('PR2-23-6T','PR2-23-6T',$,(#219));
#221=PRESENTATION_STYLE_ASSIGNMENT((#222));
#222=SURFACE_STYLE_USAGE(.BOTH.,#223);
#223=SURFACE_SIDE_STYLE($,(#224));
#224=SURFACE_STYLE_FILL_AREA(#225);
#225=FILL_AREA_STYLE($,(#226));
#226=FILL_AREA_STYLE_COLOUR($,#227);
#227=COLOUR_RGB('',1.,1.,1.);
ENDSEC;
END-ISO-10303-21;
