ISO-10303-21;
HEADER;
/* Generated by software containing ST-Developer
 * from STEP Tools, Inc. (www.steptools.com) 
 */

FILE_DESCRIPTION(
/* description */ (''),
/* implementation_level */ '2;1');

FILE_NAME(
/* name */ '\\\\SYNOLOGYNAS\\web\\db2\\PR10-23\\\X2\B3C4BA74\X0\\\DR_P
R10-23.stp',
/* time_stamp */ '2022-11-17T16:41:31+09:00',
/* author */ ('user'),
/* organization */ (''),
/* preprocessor_version */ 'ST-DEVELOPER v15.6',
/* originating_system */ 'Autodesk Inventor 2015',
/* authorisation */ '');

FILE_SCHEMA (('AUTOMOTIVE_DESIGN { 1 0 10303 214 3 1 1 }'));
ENDSEC;

DATA;
#10=MECHANICAL_DESIGN_GEOMETRIC_PRESENTATION_REPRESENTATION('',(#13),#149);
#11=SHAPE_REPRESENTATION_RELATIONSHIP('SRR','None',#158,#12);
#12=ADVANCED_BREP_SHAPE_REPRESENTATION($,(#14),#148);
#13=STYLED_ITEM('',(#167),#14);
#14=MANIFOLD_SOLID_BREP('\X2\C194B9ACB4DC\X0\1',#83);
#15=CONICAL_SURFACE('',#97,17.,6.29394818895108);
#16=CYLINDRICAL_SURFACE('',#88,4.75);
#17=CYLINDRICAL_SURFACE('',#90,2.);
#18=FACE_BOUND('',#31,.T.);
#19=FACE_BOUND('',#33,.T.);
#20=FACE_BOUND('',#35,.T.);
#21=FACE_BOUND('',#38,.T.);
#22=FACE_BOUND('',#41,.T.);
#23=FACE_OUTER_BOUND('',#30,.T.);
#24=FACE_OUTER_BOUND('',#32,.T.);
#25=FACE_OUTER_BOUND('',#34,.T.);
#26=FACE_OUTER_BOUND('',#36,.T.);
#27=FACE_OUTER_BOUND('',#37,.T.);
#28=FACE_OUTER_BOUND('',#39,.T.);
#29=FACE_OUTER_BOUND('',#40,.T.);
#30=EDGE_LOOP('',(#60));
#31=EDGE_LOOP('',(#61));
#32=EDGE_LOOP('',(#62));
#33=EDGE_LOOP('',(#63));
#34=EDGE_LOOP('',(#64));
#35=EDGE_LOOP('',(#65));
#36=EDGE_LOOP('',(#66));
#37=EDGE_LOOP('',(#67));
#38=EDGE_LOOP('',(#68));
#39=EDGE_LOOP('',(#69));
#40=EDGE_LOOP('',(#70));
#41=EDGE_LOOP('',(#71));
#42=CIRCLE('',#86,4.75);
#43=CIRCLE('',#87,2.);
#44=CIRCLE('',#89,4.75);
#45=CIRCLE('',#91,2.);
#46=CIRCLE('',#94,13.25);
#47=CIRCLE('',#96,17.);
#48=VERTEX_POINT('',#128);
#49=VERTEX_POINT('',#130);
#50=VERTEX_POINT('',#133);
#51=VERTEX_POINT('',#136);
#52=VERTEX_POINT('',#140);
#53=VERTEX_POINT('',#143);
#54=EDGE_CURVE('',#48,#48,#42,.T.);
#55=EDGE_CURVE('',#49,#49,#43,.T.);
#56=EDGE_CURVE('',#50,#50,#44,.T.);
#57=EDGE_CURVE('',#51,#51,#45,.T.);
#58=EDGE_CURVE('',#52,#52,#46,.T.);
#59=EDGE_CURVE('',#53,#53,#47,.T.);
#60=ORIENTED_EDGE('',*,*,#54,.T.);
#61=ORIENTED_EDGE('',*,*,#55,.F.);
#62=ORIENTED_EDGE('',*,*,#56,.F.);
#63=ORIENTED_EDGE('',*,*,#54,.F.);
#64=ORIENTED_EDGE('',*,*,#55,.T.);
#65=ORIENTED_EDGE('',*,*,#57,.F.);
#66=ORIENTED_EDGE('',*,*,#57,.T.);
#67=ORIENTED_EDGE('',*,*,#58,.F.);
#68=ORIENTED_EDGE('',*,*,#56,.T.);
#69=ORIENTED_EDGE('',*,*,#59,.F.);
#70=ORIENTED_EDGE('',*,*,#59,.T.);
#71=ORIENTED_EDGE('',*,*,#58,.T.);
#72=PLANE('',#85);
#73=PLANE('',#92);
#74=PLANE('',#93);
#75=PLANE('',#95);
#76=ADVANCED_FACE('',(#23,#18),#72,.T.);
#77=ADVANCED_FACE('',(#24,#19),#16,.F.);
#78=ADVANCED_FACE('',(#25,#20),#17,.F.);
#79=ADVANCED_FACE('',(#26),#73,.T.);
#80=ADVANCED_FACE('',(#27,#21),#74,.F.);
#81=ADVANCED_FACE('',(#28),#75,.F.);
#82=ADVANCED_FACE('',(#29,#22),#15,.T.);
#83=CLOSED_SHELL('',(#76,#77,#78,#79,#80,#81,#82));
#84=AXIS2_PLACEMENT_3D('placement',#126,#98,#99);
#85=AXIS2_PLACEMENT_3D('',#127,#100,#101);
#86=AXIS2_PLACEMENT_3D('',#129,#102,#103);
#87=AXIS2_PLACEMENT_3D('',#131,#104,#105);
#88=AXIS2_PLACEMENT_3D('',#132,#106,#107);
#89=AXIS2_PLACEMENT_3D('',#134,#108,#109);
#90=AXIS2_PLACEMENT_3D('',#135,#110,#111);
#91=AXIS2_PLACEMENT_3D('',#137,#112,#113);
#92=AXIS2_PLACEMENT_3D('',#138,#114,#115);
#93=AXIS2_PLACEMENT_3D('',#139,#116,#117);
#94=AXIS2_PLACEMENT_3D('',#141,#118,#119);
#95=AXIS2_PLACEMENT_3D('',#142,#120,#121);
#96=AXIS2_PLACEMENT_3D('',#144,#122,#123);
#97=AXIS2_PLACEMENT_3D('',#145,#124,#125);
#98=DIRECTION('axis',(0.,0.,1.));
#99=DIRECTION('refdir',(1.,0.,0.));
#100=DIRECTION('center_axis',(0.,1.,0.));
#101=DIRECTION('ref_axis',(-1.,0.,0.));
#102=DIRECTION('center_axis',(0.,1.,0.));
#103=DIRECTION('ref_axis',(-1.,0.,0.));
#104=DIRECTION('center_axis',(0.,1.,0.));
#105=DIRECTION('ref_axis',(-1.,0.,0.));
#106=DIRECTION('center_axis',(0.,1.,0.));
#107=DIRECTION('ref_axis',(-1.,0.,0.));
#108=DIRECTION('center_axis',(0.,-1.,0.));
#109=DIRECTION('ref_axis',(-1.,0.,0.));
#110=DIRECTION('center_axis',(0.,1.,0.));
#111=DIRECTION('ref_axis',(-1.,0.,0.));
#112=DIRECTION('center_axis',(0.,1.,0.));
#113=DIRECTION('ref_axis',(-1.,0.,0.));
#114=DIRECTION('center_axis',(0.,1.,0.));
#115=DIRECTION('ref_axis',(-1.,0.,0.));
#116=DIRECTION('center_axis',(0.,-1.,0.));
#117=DIRECTION('ref_axis',(0.,0.,-1.));
#118=DIRECTION('center_axis',(0.,-1.,0.));
#119=DIRECTION('ref_axis',(1.,0.,0.));
#120=DIRECTION('center_axis',(0.,1.,0.));
#121=DIRECTION('ref_axis',(0.,0.,1.));
#122=DIRECTION('center_axis',(0.,1.,0.));
#123=DIRECTION('ref_axis',(1.,0.,0.));
#124=DIRECTION('center_axis',(0.,-1.,0.));
#125=DIRECTION('ref_axis',(1.,0.,0.));
#126=CARTESIAN_POINT('',(0.,0.,0.));
#127=CARTESIAN_POINT('Origin',(0.,15.,0.));
#128=CARTESIAN_POINT('',(-4.75,15.,0.));
#129=CARTESIAN_POINT('Origin',(0.,15.,0.));
#130=CARTESIAN_POINT('',(2.,15.,-2.44929359829471E-16));
#131=CARTESIAN_POINT('Origin',(0.,15.,0.));
#132=CARTESIAN_POINT('Origin',(0.,24.5,0.));
#133=CARTESIAN_POINT('',(-4.75,34.,0.));
#134=CARTESIAN_POINT('Origin',(0.,34.,0.));
#135=CARTESIAN_POINT('Origin',(0.,17.5,0.));
#136=CARTESIAN_POINT('',(-2.,1.,0.));
#137=CARTESIAN_POINT('Origin',(0.,1.,0.));
#138=CARTESIAN_POINT('Origin',(0.,1.,0.));
#139=CARTESIAN_POINT('Origin',(0.,34.,0.));
#140=CARTESIAN_POINT('',(13.25,34.,0.));
#141=CARTESIAN_POINT('Origin',(0.,34.,0.));
#142=CARTESIAN_POINT('Origin',(0.,0.,0.));
#143=CARTESIAN_POINT('',(17.,0.,0.));
#144=CARTESIAN_POINT('Origin',(0.,0.,0.));
#145=CARTESIAN_POINT('Origin',(0.,0.,0.));
#146=UNCERTAINTY_MEASURE_WITH_UNIT(LENGTH_MEASURE(0.01),#150,
'DISTANCE_ACCURACY_VALUE',
'Maximum model space distance between geometric entities at asserted c
onnectivities');
#147=UNCERTAINTY_MEASURE_WITH_UNIT(LENGTH_MEASURE(1.E-6),#150,
'DISTANCE_ACCURACY_VALUE',
'Maximum model space distance between geometric entities at asserted c
onnectivities');
#148=(
GEOMETRIC_REPRESENTATION_CONTEXT(3)
GLOBAL_UNCERTAINTY_ASSIGNED_CONTEXT((#146))
GLOBAL_UNIT_ASSIGNED_CONTEXT((#150,#153,#151))
REPRESENTATION_CONTEXT('','3D')
);
#149=(
GEOMETRIC_REPRESENTATION_CONTEXT(3)
GLOBAL_UNCERTAINTY_ASSIGNED_CONTEXT((#147))
GLOBAL_UNIT_ASSIGNED_CONTEXT((#150,#153,#151))
REPRESENTATION_CONTEXT('','3D')
);
#150=(
LENGTH_UNIT()
NAMED_UNIT(*)
SI_UNIT(.MILLI.,.METRE.)
);
#151=(
NAMED_UNIT(*)
SI_UNIT($,.STERADIAN.)
SOLID_ANGLE_UNIT()
);
#152=DIMENSIONAL_EXPONENTS(0.,0.,0.,0.,0.,0.,0.);
#153=(
CONVERSION_BASED_UNIT('degree',#155)
NAMED_UNIT(#152)
PLANE_ANGLE_UNIT()
);
#154=(
NAMED_UNIT(*)
PLANE_ANGLE_UNIT()
SI_UNIT($,.RADIAN.)
);
#155=PLANE_ANGLE_MEASURE_WITH_UNIT(PLANE_ANGLE_MEASURE(0.01745329252),#154);
#156=SHAPE_DEFINITION_REPRESENTATION(#157,#158);
#157=PRODUCT_DEFINITION_SHAPE('',$,#160);
#158=SHAPE_REPRESENTATION('',(#84),#148);
#159=PRODUCT_DEFINITION_CONTEXT('part definition',#164,'design');
#160=PRODUCT_DEFINITION('DR_PR10-23','DR_PR10-23',#161,#159);
#161=PRODUCT_DEFINITION_FORMATION('',$,#166);
#162=PRODUCT_RELATED_PRODUCT_CATEGORY('DR_PR10-23','DR_PR10-23',(#166));
#163=APPLICATION_PROTOCOL_DEFINITION('international standard',
'automotive_design',2009,#164);
#164=APPLICATION_CONTEXT(
'Core Data for Automotive Mechanical Design Process');
#165=PRODUCT_CONTEXT('part definition',#164,'mechanical');
#166=PRODUCT('DR_PR10-23','DR_PR10-23',$,(#165));
#167=PRESENTATION_STYLE_ASSIGNMENT((#168));
#168=SURFACE_STYLE_USAGE(.BOTH.,#169);
#169=SURFACE_SIDE_STYLE($,(#170));
#170=SURFACE_STYLE_FILL_AREA(#171);
#171=FILL_AREA_STYLE($,(#172));
#172=FILL_AREA_STYLE_COLOUR($,#173);
#173=COLOUR_RGB('',1.,1.,1.);
ENDSEC;
END-ISO-10303-21;
