ISO-10303-21;
HEADER;
/* Generated by software containing ST-Developer
 * from STEP Tools, Inc. (www.steptools.com) 
 */

FILE_DESCRIPTION(
/* description */ (''),
/* implementation_level */ '2;1');

FILE_NAME(
/* name */ '\\\\SYNOLOGYNAS\\web\\db2\\B-M52\\\X2\B3C4BA74\X0\\\B-M52.
stp',
/* time_stamp */ '2023-12-07T09:06:34+09:00',
/* author */ ('user'),
/* organization */ (''),
/* preprocessor_version */ 'ST-DEVELOPER v15.6',
/* originating_system */ 'Autodesk Inventor 2015',
/* authorisation */ '');

FILE_SCHEMA (('AUTOMOTIVE_DESIGN { 1 0 10303 214 3 1 1 }'));
ENDSEC;

DATA;
#10=MECHANICAL_DESIGN_GEOMETRIC_PRESENTATION_REPRESENTATION('',(#16),#594);
#11=DIMENSIONAL_EXPONENTS(0.,0.,0.,0.,0.,0.,0.);
#12=(
CONVERSION_BASED_UNIT('degree',#13)
NAMED_UNIT(#11)
PLANE_ANGLE_UNIT()
);
#13=PLANE_ANGLE_MEASURE_WITH_UNIT(PLANE_ANGLE_MEASURE(0.01745329252),#597);
#14=SHAPE_REPRESENTATION_RELATIONSHIP('SRR','None',#600,#15);
#15=ADVANCED_BREP_SHAPE_REPRESENTATION($,(#17),#593);
#16=STYLED_ITEM('',(#609),#17);
#17=MANIFOLD_SOLID_BREP('\X2\C194B9ACB4DC\X0\2',#354);
#18=FACE_BOUND('',#53,.T.);
#19=FACE_BOUND('',#54,.T.);
#20=FACE_BOUND('',#70,.T.);
#21=FACE_BOUND('',#71,.T.);
#22=PLANE('',#359);
#23=PLANE('',#360);
#24=PLANE('',#370);
#25=PLANE('',#377);
#26=PLANE('',#380);
#27=PLANE('',#383);
#28=PLANE('',#386);
#29=PLANE('',#387);
#30=PLANE('',#388);
#31=PLANE('',#389);
#32=FACE_OUTER_BOUND('',#50,.T.);
#33=FACE_OUTER_BOUND('',#51,.T.);
#34=FACE_OUTER_BOUND('',#52,.T.);
#35=FACE_OUTER_BOUND('',#55,.T.);
#36=FACE_OUTER_BOUND('',#56,.T.);
#37=FACE_OUTER_BOUND('',#57,.T.);
#38=FACE_OUTER_BOUND('',#58,.T.);
#39=FACE_OUTER_BOUND('',#59,.T.);
#40=FACE_OUTER_BOUND('',#60,.T.);
#41=FACE_OUTER_BOUND('',#61,.T.);
#42=FACE_OUTER_BOUND('',#62,.T.);
#43=FACE_OUTER_BOUND('',#63,.T.);
#44=FACE_OUTER_BOUND('',#64,.T.);
#45=FACE_OUTER_BOUND('',#65,.T.);
#46=FACE_OUTER_BOUND('',#66,.T.);
#47=FACE_OUTER_BOUND('',#67,.T.);
#48=FACE_OUTER_BOUND('',#68,.T.);
#49=FACE_OUTER_BOUND('',#69,.T.);
#50=EDGE_LOOP('',(#232,#233,#234,#235));
#51=EDGE_LOOP('',(#236,#237,#238,#239));
#52=EDGE_LOOP('',(#240,#241,#242,#243,#244,#245,#246,#247));
#53=EDGE_LOOP('',(#248,#249,#250,#251));
#54=EDGE_LOOP('',(#252,#253,#254,#255));
#55=EDGE_LOOP('',(#256,#257,#258,#259));
#56=EDGE_LOOP('',(#260,#261,#262,#263));
#57=EDGE_LOOP('',(#264,#265,#266,#267));
#58=EDGE_LOOP('',(#268,#269,#270,#271));
#59=EDGE_LOOP('',(#272,#273,#274,#275));
#60=EDGE_LOOP('',(#276,#277,#278,#279));
#61=EDGE_LOOP('',(#280,#281,#282,#283));
#62=EDGE_LOOP('',(#284,#285,#286,#287));
#63=EDGE_LOOP('',(#288,#289,#290,#291));
#64=EDGE_LOOP('',(#292,#293,#294,#295));
#65=EDGE_LOOP('',(#296,#297,#298,#299));
#66=EDGE_LOOP('',(#300,#301,#302,#303));
#67=EDGE_LOOP('',(#304,#305,#306,#307));
#68=EDGE_LOOP('',(#308,#309,#310,#311));
#69=EDGE_LOOP('',(#312,#313,#314,#315,#316,#317,#318,#319));
#70=EDGE_LOOP('',(#320,#321,#322,#323));
#71=EDGE_LOOP('',(#324,#325,#326,#327));
#72=LINE('',#498,#104);
#73=LINE('',#501,#105);
#74=LINE('',#504,#106);
#75=LINE('',#506,#107);
#76=LINE('',#507,#108);
#77=LINE('',#510,#109);
#78=LINE('',#514,#110);
#79=LINE('',#518,#111);
#80=LINE('',#522,#112);
#81=LINE('',#526,#113);
#82=LINE('',#530,#114);
#83=LINE('',#534,#115);
#84=LINE('',#540,#116);
#85=LINE('',#541,#117);
#86=LINE('',#544,#118);
#87=LINE('',#545,#119);
#88=LINE('',#549,#120);
#89=LINE('',#553,#121);
#90=LINE('',#556,#122);
#91=LINE('',#559,#123);
#92=LINE('',#562,#124);
#93=LINE('',#563,#125);
#94=LINE('',#567,#126);
#95=LINE('',#569,#127);
#96=LINE('',#572,#128);
#97=LINE('',#575,#129);
#98=LINE('',#578,#130);
#99=LINE('',#579,#131);
#100=LINE('',#583,#132);
#101=LINE('',#585,#133);
#102=LINE('',#587,#134);
#103=LINE('',#589,#135);
#104=VECTOR('',#396,1.4);
#105=VECTOR('',#399,1.4);
#106=VECTOR('',#402,58.);
#107=VECTOR('',#403,1.4);
#108=VECTOR('',#404,58.);
#109=VECTOR('',#407,18.);
#110=VECTOR('',#410,58.);
#111=VECTOR('',#413,18.);
#112=VECTOR('',#416,11.5);
#113=VECTOR('',#419,11.5);
#114=VECTOR('',#422,11.5);
#115=VECTOR('',#425,11.5);
#116=VECTOR('',#432,1.4);
#117=VECTOR('',#433,1.4);
#118=VECTOR('',#436,58.);
#119=VECTOR('',#437,1.4);
#120=VECTOR('',#442,1.4);
#121=VECTOR('',#447,1.4);
#122=VECTOR('',#450,1.4);
#123=VECTOR('',#453,1.4);
#124=VECTOR('',#456,11.5);
#125=VECTOR('',#457,1.4);
#126=VECTOR('',#462,1.4);
#127=VECTOR('',#465,11.5);
#128=VECTOR('',#468,1.4);
#129=VECTOR('',#471,1.4);
#130=VECTOR('',#474,11.5);
#131=VECTOR('',#475,1.4);
#132=VECTOR('',#480,1.4);
#133=VECTOR('',#483,11.5);
#134=VECTOR('',#486,18.);
#135=VECTOR('',#489,18.);
#136=CIRCLE('',#357,4.);
#137=CIRCLE('',#358,4.);
#138=CIRCLE('',#361,4.);
#139=CIRCLE('',#362,4.);
#140=CIRCLE('',#363,4.);
#141=CIRCLE('',#364,2.75);
#142=CIRCLE('',#365,2.75);
#143=CIRCLE('',#366,2.75);
#144=CIRCLE('',#367,2.75);
#145=CIRCLE('',#369,4.);
#146=CIRCLE('',#372,4.);
#147=CIRCLE('',#374,4.);
#148=CIRCLE('',#376,2.75);
#149=CIRCLE('',#379,2.75);
#150=CIRCLE('',#382,2.75);
#151=CIRCLE('',#385,2.75);
#152=VERTEX_POINT('',#494);
#153=VERTEX_POINT('',#495);
#154=VERTEX_POINT('',#497);
#155=VERTEX_POINT('',#499);
#156=VERTEX_POINT('',#503);
#157=VERTEX_POINT('',#505);
#158=VERTEX_POINT('',#509);
#159=VERTEX_POINT('',#511);
#160=VERTEX_POINT('',#513);
#161=VERTEX_POINT('',#515);
#162=VERTEX_POINT('',#517);
#163=VERTEX_POINT('',#520);
#164=VERTEX_POINT('',#521);
#165=VERTEX_POINT('',#523);
#166=VERTEX_POINT('',#525);
#167=VERTEX_POINT('',#528);
#168=VERTEX_POINT('',#529);
#169=VERTEX_POINT('',#531);
#170=VERTEX_POINT('',#533);
#171=VERTEX_POINT('',#537);
#172=VERTEX_POINT('',#538);
#173=VERTEX_POINT('',#543);
#174=VERTEX_POINT('',#547);
#175=VERTEX_POINT('',#551);
#176=VERTEX_POINT('',#555);
#177=VERTEX_POINT('',#557);
#178=VERTEX_POINT('',#561);
#179=VERTEX_POINT('',#565);
#180=VERTEX_POINT('',#571);
#181=VERTEX_POINT('',#573);
#182=VERTEX_POINT('',#577);
#183=VERTEX_POINT('',#581);
#184=EDGE_CURVE('',#152,#153,#136,.T.);
#185=EDGE_CURVE('',#153,#154,#72,.T.);
#186=EDGE_CURVE('',#154,#155,#137,.T.);
#187=EDGE_CURVE('',#155,#152,#73,.T.);
#188=EDGE_CURVE('',#155,#156,#74,.T.);
#189=EDGE_CURVE('',#157,#156,#75,.T.);
#190=EDGE_CURVE('',#152,#157,#76,.T.);
#191=EDGE_CURVE('',#158,#154,#77,.T.);
#192=EDGE_CURVE('',#159,#158,#138,.T.);
#193=EDGE_CURVE('',#160,#159,#78,.T.);
#194=EDGE_CURVE('',#161,#160,#139,.T.);
#195=EDGE_CURVE('',#162,#161,#79,.T.);
#196=EDGE_CURVE('',#156,#162,#140,.T.);
#197=EDGE_CURVE('',#163,#164,#80,.T.);
#198=EDGE_CURVE('',#165,#163,#141,.T.);
#199=EDGE_CURVE('',#166,#165,#81,.T.);
#200=EDGE_CURVE('',#164,#166,#142,.T.);
#201=EDGE_CURVE('',#167,#168,#82,.T.);
#202=EDGE_CURVE('',#169,#167,#143,.T.);
#203=EDGE_CURVE('',#170,#169,#83,.T.);
#204=EDGE_CURVE('',#168,#170,#144,.T.);
#205=EDGE_CURVE('',#171,#172,#145,.T.);
#206=EDGE_CURVE('',#172,#159,#84,.T.);
#207=EDGE_CURVE('',#158,#171,#85,.T.);
#208=EDGE_CURVE('',#173,#172,#86,.T.);
#209=EDGE_CURVE('',#160,#173,#87,.T.);
#210=EDGE_CURVE('',#173,#174,#146,.T.);
#211=EDGE_CURVE('',#174,#161,#88,.T.);
#212=EDGE_CURVE('',#175,#157,#147,.T.);
#213=EDGE_CURVE('',#162,#175,#89,.T.);
#214=EDGE_CURVE('',#167,#176,#90,.T.);
#215=EDGE_CURVE('',#177,#176,#148,.T.);
#216=EDGE_CURVE('',#169,#177,#91,.T.);
#217=EDGE_CURVE('',#178,#177,#92,.T.);
#218=EDGE_CURVE('',#170,#178,#93,.T.);
#219=EDGE_CURVE('',#179,#178,#149,.T.);
#220=EDGE_CURVE('',#168,#179,#94,.T.);
#221=EDGE_CURVE('',#176,#179,#95,.T.);
#222=EDGE_CURVE('',#163,#180,#96,.T.);
#223=EDGE_CURVE('',#181,#180,#150,.T.);
#224=EDGE_CURVE('',#165,#181,#97,.T.);
#225=EDGE_CURVE('',#182,#181,#98,.T.);
#226=EDGE_CURVE('',#166,#182,#99,.T.);
#227=EDGE_CURVE('',#183,#182,#151,.T.);
#228=EDGE_CURVE('',#164,#183,#100,.T.);
#229=EDGE_CURVE('',#180,#183,#101,.T.);
#230=EDGE_CURVE('',#175,#174,#102,.T.);
#231=EDGE_CURVE('',#171,#153,#103,.T.);
#232=ORIENTED_EDGE('',*,*,#184,.T.);
#233=ORIENTED_EDGE('',*,*,#185,.T.);
#234=ORIENTED_EDGE('',*,*,#186,.T.);
#235=ORIENTED_EDGE('',*,*,#187,.T.);
#236=ORIENTED_EDGE('',*,*,#187,.F.);
#237=ORIENTED_EDGE('',*,*,#188,.T.);
#238=ORIENTED_EDGE('',*,*,#189,.F.);
#239=ORIENTED_EDGE('',*,*,#190,.F.);
#240=ORIENTED_EDGE('',*,*,#186,.F.);
#241=ORIENTED_EDGE('',*,*,#191,.F.);
#242=ORIENTED_EDGE('',*,*,#192,.F.);
#243=ORIENTED_EDGE('',*,*,#193,.F.);
#244=ORIENTED_EDGE('',*,*,#194,.F.);
#245=ORIENTED_EDGE('',*,*,#195,.F.);
#246=ORIENTED_EDGE('',*,*,#196,.F.);
#247=ORIENTED_EDGE('',*,*,#188,.F.);
#248=ORIENTED_EDGE('',*,*,#197,.F.);
#249=ORIENTED_EDGE('',*,*,#198,.F.);
#250=ORIENTED_EDGE('',*,*,#199,.F.);
#251=ORIENTED_EDGE('',*,*,#200,.F.);
#252=ORIENTED_EDGE('',*,*,#201,.F.);
#253=ORIENTED_EDGE('',*,*,#202,.F.);
#254=ORIENTED_EDGE('',*,*,#203,.F.);
#255=ORIENTED_EDGE('',*,*,#204,.F.);
#256=ORIENTED_EDGE('',*,*,#205,.T.);
#257=ORIENTED_EDGE('',*,*,#206,.T.);
#258=ORIENTED_EDGE('',*,*,#192,.T.);
#259=ORIENTED_EDGE('',*,*,#207,.T.);
#260=ORIENTED_EDGE('',*,*,#206,.F.);
#261=ORIENTED_EDGE('',*,*,#208,.F.);
#262=ORIENTED_EDGE('',*,*,#209,.F.);
#263=ORIENTED_EDGE('',*,*,#193,.T.);
#264=ORIENTED_EDGE('',*,*,#210,.T.);
#265=ORIENTED_EDGE('',*,*,#211,.T.);
#266=ORIENTED_EDGE('',*,*,#194,.T.);
#267=ORIENTED_EDGE('',*,*,#209,.T.);
#268=ORIENTED_EDGE('',*,*,#212,.T.);
#269=ORIENTED_EDGE('',*,*,#189,.T.);
#270=ORIENTED_EDGE('',*,*,#196,.T.);
#271=ORIENTED_EDGE('',*,*,#213,.T.);
#272=ORIENTED_EDGE('',*,*,#202,.T.);
#273=ORIENTED_EDGE('',*,*,#214,.T.);
#274=ORIENTED_EDGE('',*,*,#215,.F.);
#275=ORIENTED_EDGE('',*,*,#216,.F.);
#276=ORIENTED_EDGE('',*,*,#203,.T.);
#277=ORIENTED_EDGE('',*,*,#216,.T.);
#278=ORIENTED_EDGE('',*,*,#217,.F.);
#279=ORIENTED_EDGE('',*,*,#218,.F.);
#280=ORIENTED_EDGE('',*,*,#204,.T.);
#281=ORIENTED_EDGE('',*,*,#218,.T.);
#282=ORIENTED_EDGE('',*,*,#219,.F.);
#283=ORIENTED_EDGE('',*,*,#220,.F.);
#284=ORIENTED_EDGE('',*,*,#201,.T.);
#285=ORIENTED_EDGE('',*,*,#220,.T.);
#286=ORIENTED_EDGE('',*,*,#221,.F.);
#287=ORIENTED_EDGE('',*,*,#214,.F.);
#288=ORIENTED_EDGE('',*,*,#198,.T.);
#289=ORIENTED_EDGE('',*,*,#222,.T.);
#290=ORIENTED_EDGE('',*,*,#223,.F.);
#291=ORIENTED_EDGE('',*,*,#224,.F.);
#292=ORIENTED_EDGE('',*,*,#199,.T.);
#293=ORIENTED_EDGE('',*,*,#224,.T.);
#294=ORIENTED_EDGE('',*,*,#225,.F.);
#295=ORIENTED_EDGE('',*,*,#226,.F.);
#296=ORIENTED_EDGE('',*,*,#200,.T.);
#297=ORIENTED_EDGE('',*,*,#226,.T.);
#298=ORIENTED_EDGE('',*,*,#227,.F.);
#299=ORIENTED_EDGE('',*,*,#228,.F.);
#300=ORIENTED_EDGE('',*,*,#197,.T.);
#301=ORIENTED_EDGE('',*,*,#228,.T.);
#302=ORIENTED_EDGE('',*,*,#229,.F.);
#303=ORIENTED_EDGE('',*,*,#222,.F.);
#304=ORIENTED_EDGE('',*,*,#211,.F.);
#305=ORIENTED_EDGE('',*,*,#230,.F.);
#306=ORIENTED_EDGE('',*,*,#213,.F.);
#307=ORIENTED_EDGE('',*,*,#195,.T.);
#308=ORIENTED_EDGE('',*,*,#185,.F.);
#309=ORIENTED_EDGE('',*,*,#231,.F.);
#310=ORIENTED_EDGE('',*,*,#207,.F.);
#311=ORIENTED_EDGE('',*,*,#191,.T.);
#312=ORIENTED_EDGE('',*,*,#184,.F.);
#313=ORIENTED_EDGE('',*,*,#190,.T.);
#314=ORIENTED_EDGE('',*,*,#212,.F.);
#315=ORIENTED_EDGE('',*,*,#230,.T.);
#316=ORIENTED_EDGE('',*,*,#210,.F.);
#317=ORIENTED_EDGE('',*,*,#208,.T.);
#318=ORIENTED_EDGE('',*,*,#205,.F.);
#319=ORIENTED_EDGE('',*,*,#231,.T.);
#320=ORIENTED_EDGE('',*,*,#229,.T.);
#321=ORIENTED_EDGE('',*,*,#227,.T.);
#322=ORIENTED_EDGE('',*,*,#225,.T.);
#323=ORIENTED_EDGE('',*,*,#223,.T.);
#324=ORIENTED_EDGE('',*,*,#221,.T.);
#325=ORIENTED_EDGE('',*,*,#219,.T.);
#326=ORIENTED_EDGE('',*,*,#217,.T.);
#327=ORIENTED_EDGE('',*,*,#215,.T.);
#328=CYLINDRICAL_SURFACE('',#356,4.);
#329=CYLINDRICAL_SURFACE('',#368,4.);
#330=CYLINDRICAL_SURFACE('',#371,4.);
#331=CYLINDRICAL_SURFACE('',#373,4.);
#332=CYLINDRICAL_SURFACE('',#375,2.75);
#333=CYLINDRICAL_SURFACE('',#378,2.75);
#334=CYLINDRICAL_SURFACE('',#381,2.75);
#335=CYLINDRICAL_SURFACE('',#384,2.75);
#336=ADVANCED_FACE('',(#32),#328,.T.);
#337=ADVANCED_FACE('',(#33),#22,.T.);
#338=ADVANCED_FACE('',(#34,#18,#19),#23,.F.);
#339=ADVANCED_FACE('',(#35),#329,.T.);
#340=ADVANCED_FACE('',(#36),#24,.T.);
#341=ADVANCED_FACE('',(#37),#330,.T.);
#342=ADVANCED_FACE('',(#38),#331,.T.);
#343=ADVANCED_FACE('',(#39),#332,.F.);
#344=ADVANCED_FACE('',(#40),#25,.T.);
#345=ADVANCED_FACE('',(#41),#333,.F.);
#346=ADVANCED_FACE('',(#42),#26,.T.);
#347=ADVANCED_FACE('',(#43),#334,.F.);
#348=ADVANCED_FACE('',(#44),#27,.T.);
#349=ADVANCED_FACE('',(#45),#335,.F.);
#350=ADVANCED_FACE('',(#46),#28,.T.);
#351=ADVANCED_FACE('',(#47),#29,.T.);
#352=ADVANCED_FACE('',(#48),#30,.T.);
#353=ADVANCED_FACE('',(#49,#20,#21),#31,.T.);
#354=CLOSED_SHELL('',(#336,#337,#338,#339,#340,#341,#342,#343,#344,#345,
#346,#347,#348,#349,#350,#351,#352,#353));
#355=AXIS2_PLACEMENT_3D('placement',#492,#390,#391);
#356=AXIS2_PLACEMENT_3D('',#493,#392,#393);
#357=AXIS2_PLACEMENT_3D('',#496,#394,#395);
#358=AXIS2_PLACEMENT_3D('',#500,#397,#398);
#359=AXIS2_PLACEMENT_3D('',#502,#400,#401);
#360=AXIS2_PLACEMENT_3D('',#508,#405,#406);
#361=AXIS2_PLACEMENT_3D('',#512,#408,#409);
#362=AXIS2_PLACEMENT_3D('',#516,#411,#412);
#363=AXIS2_PLACEMENT_3D('',#519,#414,#415);
#364=AXIS2_PLACEMENT_3D('',#524,#417,#418);
#365=AXIS2_PLACEMENT_3D('',#527,#420,#421);
#366=AXIS2_PLACEMENT_3D('',#532,#423,#424);
#367=AXIS2_PLACEMENT_3D('',#535,#426,#427);
#368=AXIS2_PLACEMENT_3D('',#536,#428,#429);
#369=AXIS2_PLACEMENT_3D('',#539,#430,#431);
#370=AXIS2_PLACEMENT_3D('',#542,#434,#435);
#371=AXIS2_PLACEMENT_3D('',#546,#438,#439);
#372=AXIS2_PLACEMENT_3D('',#548,#440,#441);
#373=AXIS2_PLACEMENT_3D('',#550,#443,#444);
#374=AXIS2_PLACEMENT_3D('',#552,#445,#446);
#375=AXIS2_PLACEMENT_3D('',#554,#448,#449);
#376=AXIS2_PLACEMENT_3D('',#558,#451,#452);
#377=AXIS2_PLACEMENT_3D('',#560,#454,#455);
#378=AXIS2_PLACEMENT_3D('',#564,#458,#459);
#379=AXIS2_PLACEMENT_3D('',#566,#460,#461);
#380=AXIS2_PLACEMENT_3D('',#568,#463,#464);
#381=AXIS2_PLACEMENT_3D('',#570,#466,#467);
#382=AXIS2_PLACEMENT_3D('',#574,#469,#470);
#383=AXIS2_PLACEMENT_3D('',#576,#472,#473);
#384=AXIS2_PLACEMENT_3D('',#580,#476,#477);
#385=AXIS2_PLACEMENT_3D('',#582,#478,#479);
#386=AXIS2_PLACEMENT_3D('',#584,#481,#482);
#387=AXIS2_PLACEMENT_3D('',#586,#484,#485);
#388=AXIS2_PLACEMENT_3D('',#588,#487,#488);
#389=AXIS2_PLACEMENT_3D('',#590,#490,#491);
#390=DIRECTION('axis',(0.,0.,1.));
#391=DIRECTION('refdir',(1.,0.,0.));
#392=DIRECTION('center_axis',(0.,0.,1.));
#393=DIRECTION('ref_axis',(0.707106781186548,0.707106781186547,0.));
#394=DIRECTION('center_axis',(0.,0.,-1.));
#395=DIRECTION('ref_axis',(0.707106781186548,0.707106781186547,0.));
#396=DIRECTION('',(0.,0.,-1.));
#397=DIRECTION('center_axis',(0.,0.,1.));
#398=DIRECTION('ref_axis',(0.707106781186548,0.707106781186547,0.));
#399=DIRECTION('',(0.,0.,1.));
#400=DIRECTION('center_axis',(-3.36431219583381E-17,1.,0.));
#401=DIRECTION('ref_axis',(-1.,0.,0.));
#402=DIRECTION('',(-1.,-3.36431219583381E-17,0.));
#403=DIRECTION('',(0.,0.,-1.));
#404=DIRECTION('',(-1.,-3.36431219583381E-17,0.));
#405=DIRECTION('center_axis',(0.,0.,1.));
#406=DIRECTION('ref_axis',(1.,0.,0.));
#407=DIRECTION('',(1.70803542250024E-16,1.,0.));
#408=DIRECTION('center_axis',(0.,0.,1.));
#409=DIRECTION('ref_axis',(0.707106781186547,-0.707106781186548,0.));
#410=DIRECTION('',(1.,-2.01858731750028E-16,0.));
#411=DIRECTION('center_axis',(0.,0.,1.));
#412=DIRECTION('ref_axis',(-0.707106781186548,-0.707106781186547,0.));
#413=DIRECTION('',(0.,-1.,0.));
#414=DIRECTION('center_axis',(0.,0.,1.));
#415=DIRECTION('ref_axis',(-0.707106781186548,0.707106781186547,0.));
#416=DIRECTION('',(0.,-1.,0.));
#417=DIRECTION('center_axis',(0.,0.,-1.));
#418=DIRECTION('ref_axis',(-1.,0.,0.));
#419=DIRECTION('',(0.,1.,0.));
#420=DIRECTION('center_axis',(0.,0.,-1.));
#421=DIRECTION('ref_axis',(1.,0.,0.));
#422=DIRECTION('',(0.,-1.,0.));
#423=DIRECTION('center_axis',(0.,0.,-1.));
#424=DIRECTION('ref_axis',(-1.,0.,0.));
#425=DIRECTION('',(0.,1.,0.));
#426=DIRECTION('center_axis',(0.,0.,-1.));
#427=DIRECTION('ref_axis',(1.,0.,0.));
#428=DIRECTION('center_axis',(0.,0.,1.));
#429=DIRECTION('ref_axis',(0.707106781186547,-0.707106781186548,0.));
#430=DIRECTION('center_axis',(0.,0.,-1.));
#431=DIRECTION('ref_axis',(0.707106781186547,-0.707106781186548,0.));
#432=DIRECTION('',(0.,0.,-1.));
#433=DIRECTION('',(0.,0.,1.));
#434=DIRECTION('center_axis',(-2.01858731750028E-16,-1.,0.));
#435=DIRECTION('ref_axis',(1.,0.,0.));
#436=DIRECTION('',(1.,-2.01858731750028E-16,0.));
#437=DIRECTION('',(0.,0.,1.));
#438=DIRECTION('center_axis',(0.,0.,1.));
#439=DIRECTION('ref_axis',(-0.707106781186548,-0.707106781186547,0.));
#440=DIRECTION('center_axis',(0.,0.,-1.));
#441=DIRECTION('ref_axis',(-0.707106781186548,-0.707106781186547,0.));
#442=DIRECTION('',(0.,0.,-1.));
#443=DIRECTION('center_axis',(0.,0.,1.));
#444=DIRECTION('ref_axis',(-0.707106781186548,0.707106781186547,0.));
#445=DIRECTION('center_axis',(0.,0.,-1.));
#446=DIRECTION('ref_axis',(-0.707106781186548,0.707106781186547,0.));
#447=DIRECTION('',(0.,0.,1.));
#448=DIRECTION('center_axis',(0.,0.,1.));
#449=DIRECTION('ref_axis',(-1.,0.,0.));
#450=DIRECTION('',(0.,0.,1.));
#451=DIRECTION('center_axis',(0.,0.,-1.));
#452=DIRECTION('ref_axis',(-1.,0.,0.));
#453=DIRECTION('',(0.,0.,1.));
#454=DIRECTION('center_axis',(1.,0.,0.));
#455=DIRECTION('ref_axis',(0.,1.,0.));
#456=DIRECTION('',(0.,1.,0.));
#457=DIRECTION('',(0.,0.,1.));
#458=DIRECTION('center_axis',(0.,0.,1.));
#459=DIRECTION('ref_axis',(1.,0.,0.));
#460=DIRECTION('center_axis',(0.,0.,-1.));
#461=DIRECTION('ref_axis',(1.,0.,0.));
#462=DIRECTION('',(0.,0.,1.));
#463=DIRECTION('center_axis',(-1.,0.,0.));
#464=DIRECTION('ref_axis',(0.,-1.,0.));
#465=DIRECTION('',(0.,-1.,0.));
#466=DIRECTION('center_axis',(0.,0.,1.));
#467=DIRECTION('ref_axis',(-1.,0.,0.));
#468=DIRECTION('',(0.,0.,1.));
#469=DIRECTION('center_axis',(0.,0.,-1.));
#470=DIRECTION('ref_axis',(-1.,0.,0.));
#471=DIRECTION('',(0.,0.,1.));
#472=DIRECTION('center_axis',(1.,0.,0.));
#473=DIRECTION('ref_axis',(0.,1.,0.));
#474=DIRECTION('',(0.,1.,0.));
#475=DIRECTION('',(0.,0.,1.));
#476=DIRECTION('center_axis',(0.,0.,1.));
#477=DIRECTION('ref_axis',(1.,0.,0.));
#478=DIRECTION('center_axis',(0.,0.,-1.));
#479=DIRECTION('ref_axis',(1.,0.,0.));
#480=DIRECTION('',(0.,0.,1.));
#481=DIRECTION('center_axis',(-1.,0.,0.));
#482=DIRECTION('ref_axis',(0.,-1.,0.));
#483=DIRECTION('',(0.,-1.,0.));
#484=DIRECTION('center_axis',(-1.,0.,0.));
#485=DIRECTION('ref_axis',(0.,-1.,0.));
#486=DIRECTION('',(0.,-1.,0.));
#487=DIRECTION('center_axis',(1.,-1.70803542250024E-16,0.));
#488=DIRECTION('ref_axis',(0.,1.,0.));
#489=DIRECTION('',(1.70803542250024E-16,1.,0.));
#490=DIRECTION('center_axis',(0.,0.,1.));
#491=DIRECTION('ref_axis',(1.,0.,0.));
#492=CARTESIAN_POINT('',(0.,0.,0.));
#493=CARTESIAN_POINT('Origin',(29.,8.99999999999999,0.));
#494=CARTESIAN_POINT('',(29.,13.,1.4));
#495=CARTESIAN_POINT('',(33.,8.99999999999999,1.4));
#496=CARTESIAN_POINT('Origin',(29.,8.99999999999999,1.4));
#497=CARTESIAN_POINT('',(33.,8.99999999999999,0.));
#498=CARTESIAN_POINT('',(33.,8.99999999999999,0.));
#499=CARTESIAN_POINT('',(29.,13.,0.));
#500=CARTESIAN_POINT('Origin',(29.,8.99999999999999,0.));
#501=CARTESIAN_POINT('',(29.,13.,0.));
#502=CARTESIAN_POINT('Origin',(33.,13.,0.));
#503=CARTESIAN_POINT('',(-29.,13.,0.));
#504=CARTESIAN_POINT('',(33.,13.,0.));
#505=CARTESIAN_POINT('',(-29.,13.,1.4));
#506=CARTESIAN_POINT('',(-29.,13.,0.));
#507=CARTESIAN_POINT('',(33.,13.,1.4));
#508=CARTESIAN_POINT('Origin',(0.,-5.55111512312578E-15,0.));
#509=CARTESIAN_POINT('',(33.,-9.00000000000001,0.));
#510=CARTESIAN_POINT('',(33.,-13.,0.));
#511=CARTESIAN_POINT('',(29.,-13.,0.));
#512=CARTESIAN_POINT('Origin',(29.,-9.00000000000001,0.));
#513=CARTESIAN_POINT('',(-29.,-13.,0.));
#514=CARTESIAN_POINT('',(-33.,-13.,0.));
#515=CARTESIAN_POINT('',(-33.,-8.99999999999999,0.));
#516=CARTESIAN_POINT('Origin',(-29.,-8.99999999999999,0.));
#517=CARTESIAN_POINT('',(-33.,8.99999999999999,0.));
#518=CARTESIAN_POINT('',(-33.,13.,0.));
#519=CARTESIAN_POINT('Origin',(-29.,8.99999999999999,0.));
#520=CARTESIAN_POINT('',(-23.25,5.75,0.));
#521=CARTESIAN_POINT('',(-23.25,-5.75,0.));
#522=CARTESIAN_POINT('',(-23.25,5.75,0.));
#523=CARTESIAN_POINT('',(-28.75,5.75,0.));
#524=CARTESIAN_POINT('Origin',(-26.,5.75,0.));
#525=CARTESIAN_POINT('',(-28.75,-5.75,0.));
#526=CARTESIAN_POINT('',(-28.75,-5.75,0.));
#527=CARTESIAN_POINT('Origin',(-26.,-5.75,0.));
#528=CARTESIAN_POINT('',(28.75,5.75000000000002,0.));
#529=CARTESIAN_POINT('',(28.75,-5.74999999999999,0.));
#530=CARTESIAN_POINT('',(28.75,5.75000000000002,0.));
#531=CARTESIAN_POINT('',(23.25,5.75000000000002,0.));
#532=CARTESIAN_POINT('Origin',(26.,5.75000000000002,0.));
#533=CARTESIAN_POINT('',(23.25,-5.74999999999999,0.));
#534=CARTESIAN_POINT('',(23.25,-5.74999999999999,0.));
#535=CARTESIAN_POINT('Origin',(26.,-5.74999999999999,0.));
#536=CARTESIAN_POINT('Origin',(29.,-9.00000000000001,0.));
#537=CARTESIAN_POINT('',(33.,-9.00000000000001,1.4));
#538=CARTESIAN_POINT('',(29.,-13.,1.4));
#539=CARTESIAN_POINT('Origin',(29.,-9.00000000000001,1.4));
#540=CARTESIAN_POINT('',(29.,-13.,0.));
#541=CARTESIAN_POINT('',(33.,-9.00000000000001,0.));
#542=CARTESIAN_POINT('Origin',(-33.,-13.,0.));
#543=CARTESIAN_POINT('',(-29.,-13.,1.4));
#544=CARTESIAN_POINT('',(-33.,-13.,1.4));
#545=CARTESIAN_POINT('',(-29.,-13.,0.));
#546=CARTESIAN_POINT('Origin',(-29.,-8.99999999999999,0.));
#547=CARTESIAN_POINT('',(-33.,-8.99999999999999,1.4));
#548=CARTESIAN_POINT('Origin',(-29.,-8.99999999999999,1.4));
#549=CARTESIAN_POINT('',(-33.,-8.99999999999999,0.));
#550=CARTESIAN_POINT('Origin',(-29.,8.99999999999999,0.));
#551=CARTESIAN_POINT('',(-33.,8.99999999999999,1.4));
#552=CARTESIAN_POINT('Origin',(-29.,8.99999999999999,1.4));
#553=CARTESIAN_POINT('',(-33.,8.99999999999999,0.));
#554=CARTESIAN_POINT('Origin',(26.,5.75000000000002,0.));
#555=CARTESIAN_POINT('',(28.75,5.75000000000002,1.4));
#556=CARTESIAN_POINT('',(28.75,5.75000000000002,0.));
#557=CARTESIAN_POINT('',(23.25,5.75000000000002,1.4));
#558=CARTESIAN_POINT('Origin',(26.,5.75000000000002,1.4));
#559=CARTESIAN_POINT('',(23.25,5.75000000000002,0.));
#560=CARTESIAN_POINT('Origin',(23.25,-5.74999999999999,0.));
#561=CARTESIAN_POINT('',(23.25,-5.74999999999999,1.4));
#562=CARTESIAN_POINT('',(23.25,-5.74999999999999,1.4));
#563=CARTESIAN_POINT('',(23.25,-5.74999999999999,0.));
#564=CARTESIAN_POINT('Origin',(26.,-5.74999999999999,0.));
#565=CARTESIAN_POINT('',(28.75,-5.74999999999999,1.4));
#566=CARTESIAN_POINT('Origin',(26.,-5.74999999999999,1.4));
#567=CARTESIAN_POINT('',(28.75,-5.74999999999999,0.));
#568=CARTESIAN_POINT('Origin',(28.75,5.75000000000002,0.));
#569=CARTESIAN_POINT('',(28.75,5.75000000000002,1.4));
#570=CARTESIAN_POINT('Origin',(-26.,5.75,0.));
#571=CARTESIAN_POINT('',(-23.25,5.75,1.4));
#572=CARTESIAN_POINT('',(-23.25,5.75,0.));
#573=CARTESIAN_POINT('',(-28.75,5.75,1.4));
#574=CARTESIAN_POINT('Origin',(-26.,5.75,1.4));
#575=CARTESIAN_POINT('',(-28.75,5.75,0.));
#576=CARTESIAN_POINT('Origin',(-28.75,-5.75,0.));
#577=CARTESIAN_POINT('',(-28.75,-5.75,1.4));
#578=CARTESIAN_POINT('',(-28.75,-5.75,1.4));
#579=CARTESIAN_POINT('',(-28.75,-5.75,0.));
#580=CARTESIAN_POINT('Origin',(-26.,-5.75,0.));
#581=CARTESIAN_POINT('',(-23.25,-5.75,1.4));
#582=CARTESIAN_POINT('Origin',(-26.,-5.75,1.4));
#583=CARTESIAN_POINT('',(-23.25,-5.75,0.));
#584=CARTESIAN_POINT('Origin',(-23.25,5.75,0.));
#585=CARTESIAN_POINT('',(-23.25,5.75,1.4));
#586=CARTESIAN_POINT('Origin',(-33.,13.,0.));
#587=CARTESIAN_POINT('',(-33.,13.,1.4));
#588=CARTESIAN_POINT('Origin',(33.,-13.,0.));
#589=CARTESIAN_POINT('',(33.,-13.,1.4));
#590=CARTESIAN_POINT('Origin',(0.,-5.55111512312578E-15,1.4));
#591=UNCERTAINTY_MEASURE_WITH_UNIT(LENGTH_MEASURE(0.01),#595,
'DISTANCE_ACCURACY_VALUE',
'Maximum model space distance between geometric entities at asserted c
onnectivities');
#592=UNCERTAINTY_MEASURE_WITH_UNIT(LENGTH_MEASURE(1.E-6),#595,
'DISTANCE_ACCURACY_VALUE',
'Maximum model space distance between geometric entities at asserted c
onnectivities');
#593=(
GEOMETRIC_REPRESENTATION_CONTEXT(3)
GLOBAL_UNCERTAINTY_ASSIGNED_CONTEXT((#591))
GLOBAL_UNIT_ASSIGNED_CONTEXT((#595,#597,#596))
REPRESENTATION_CONTEXT('','3D')
);
#594=(
GEOMETRIC_REPRESENTATION_CONTEXT(3)
GLOBAL_UNCERTAINTY_ASSIGNED_CONTEXT((#592))
GLOBAL_UNIT_ASSIGNED_CONTEXT((#595,#12,#596))
REPRESENTATION_CONTEXT('','3D')
);
#595=(
LENGTH_UNIT()
NAMED_UNIT(*)
SI_UNIT(.MILLI.,.METRE.)
);
#596=(
NAMED_UNIT(*)
SI_UNIT($,.STERADIAN.)
SOLID_ANGLE_UNIT()
);
#597=(
NAMED_UNIT(*)
PLANE_ANGLE_UNIT()
SI_UNIT($,.RADIAN.)
);
#598=SHAPE_DEFINITION_REPRESENTATION(#599,#600);
#599=PRODUCT_DEFINITION_SHAPE('',$,#602);
#600=SHAPE_REPRESENTATION('',(#355),#593);
#601=PRODUCT_DEFINITION_CONTEXT('part definition',#606,'design');
#602=PRODUCT_DEFINITION('B-M52','B-M52',#603,#601);
#603=PRODUCT_DEFINITION_FORMATION('',$,#608);
#604=PRODUCT_RELATED_PRODUCT_CATEGORY('B-M52','B-M52',(#608));
#605=APPLICATION_PROTOCOL_DEFINITION('international standard',
'automotive_design',2009,#606);
#606=APPLICATION_CONTEXT(
'Core Data for Automotive Mechanical Design Process');
#607=PRODUCT_CONTEXT('part definition',#606,'mechanical');
#608=PRODUCT('B-M52','B-M52',$,(#607));
#609=PRESENTATION_STYLE_ASSIGNMENT((#610));
#610=SURFACE_STYLE_USAGE(.BOTH.,#611);
#611=SURFACE_SIDE_STYLE($,(#612));
#612=SURFACE_STYLE_FILL_AREA(#613);
#613=FILL_AREA_STYLE($,(#614));
#614=FILL_AREA_STYLE_COLOUR($,#615);
#615=COLOUR_RGB('',1.,1.,1.);
ENDSEC;
END-ISO-10303-21;
