ISO-10303-21;
HEADER;
/* Generated by software containing ST-Developer
 * from STEP Tools, Inc. (www.steptools.com) 
 */

FILE_DESCRIPTION(
/* description */ (''),
/* implementation_level */ '2;1');

FILE_NAME(
/* name */ '\\\\SYNOLOGYNAS\\web\\db2\\A-GST8-100\\\X2\C644B8CC\X0\\\A
-GST8-100.stp',
/* time_stamp */ '2026-01-12T19:18:22+09:00',
/* author */ ('user'),
/* organization */ (''),
/* preprocessor_version */ 'ST-DEVELOPER v15.6',
/* originating_system */ 'Autodesk Inventor 2015',
/* authorisation */ '');

FILE_SCHEMA (('AUTOMOTIVE_DESIGN { 1 0 10303 214 3 1 1 }'));
ENDSEC;

DATA;
#10=MECHANICAL_DESIGN_GEOMETRIC_PRESENTATION_REPRESENTATION('',(#13),#349);
#11=SHAPE_REPRESENTATION_RELATIONSHIP('SRR','None',#358,#12);
#12=ADVANCED_BREP_SHAPE_REPRESENTATION($,(#14),#348);
#13=STYLED_ITEM('',(#367),#14);
#14=MANIFOLD_SOLID_BREP('\X2\C194B9ACB4DC\X0\1',#193);
#15=PLANE('',#226);
#16=PLANE('',#227);
#17=TOROIDAL_SURFACE('',#210,8.,4.);
#18=TOROIDAL_SURFACE('',#214,8.,4.);
#19=TOROIDAL_SURFACE('',#218,8.,4.);
#20=TOROIDAL_SURFACE('',#222,8.,4.);
#21=CYLINDRICAL_SURFACE('',#200,1.621);
#22=CYLINDRICAL_SURFACE('',#206,1.621);
#23=CYLINDRICAL_SURFACE('',#207,4.);
#24=CYLINDRICAL_SURFACE('',#212,4.);
#25=CYLINDRICAL_SURFACE('',#216,4.);
#26=CYLINDRICAL_SURFACE('',#220,4.);
#27=CYLINDRICAL_SURFACE('',#224,4.);
#28=FACE_BOUND('',#62,.T.);
#29=FACE_BOUND('',#64,.T.);
#30=FACE_BOUND('',#67,.T.);
#31=FACE_BOUND('',#69,.T.);
#32=FACE_BOUND('',#71,.T.);
#33=FACE_BOUND('',#73,.T.);
#34=FACE_BOUND('',#75,.T.);
#35=FACE_BOUND('',#77,.T.);
#36=FACE_BOUND('',#79,.T.);
#37=FACE_BOUND('',#81,.T.);
#38=FACE_BOUND('',#83,.T.);
#39=FACE_BOUND('',#85,.T.);
#40=FACE_BOUND('',#87,.T.);
#41=FACE_BOUND('',#89,.T.);
#42=FACE_BOUND('',#91,.T.);
#43=FACE_OUTER_BOUND('',#60,.T.);
#44=FACE_OUTER_BOUND('',#61,.T.);
#45=FACE_OUTER_BOUND('',#63,.T.);
#46=FACE_OUTER_BOUND('',#65,.T.);
#47=FACE_OUTER_BOUND('',#66,.T.);
#48=FACE_OUTER_BOUND('',#68,.T.);
#49=FACE_OUTER_BOUND('',#70,.T.);
#50=FACE_OUTER_BOUND('',#72,.T.);
#51=FACE_OUTER_BOUND('',#74,.T.);
#52=FACE_OUTER_BOUND('',#76,.T.);
#53=FACE_OUTER_BOUND('',#78,.T.);
#54=FACE_OUTER_BOUND('',#80,.T.);
#55=FACE_OUTER_BOUND('',#82,.T.);
#56=FACE_OUTER_BOUND('',#84,.T.);
#57=FACE_OUTER_BOUND('',#86,.T.);
#58=FACE_OUTER_BOUND('',#88,.T.);
#59=FACE_OUTER_BOUND('',#90,.T.);
#60=EDGE_LOOP('',(#140));
#61=EDGE_LOOP('',(#141));
#62=EDGE_LOOP('',(#142));
#63=EDGE_LOOP('',(#143));
#64=EDGE_LOOP('',(#144));
#65=EDGE_LOOP('',(#145));
#66=EDGE_LOOP('',(#146));
#67=EDGE_LOOP('',(#147));
#68=EDGE_LOOP('',(#148));
#69=EDGE_LOOP('',(#149));
#70=EDGE_LOOP('',(#150));
#71=EDGE_LOOP('',(#151));
#72=EDGE_LOOP('',(#152));
#73=EDGE_LOOP('',(#153));
#74=EDGE_LOOP('',(#154));
#75=EDGE_LOOP('',(#155));
#76=EDGE_LOOP('',(#156));
#77=EDGE_LOOP('',(#157));
#78=EDGE_LOOP('',(#158));
#79=EDGE_LOOP('',(#159));
#80=EDGE_LOOP('',(#160));
#81=EDGE_LOOP('',(#161));
#82=EDGE_LOOP('',(#162));
#83=EDGE_LOOP('',(#163));
#84=EDGE_LOOP('',(#164));
#85=EDGE_LOOP('',(#165));
#86=EDGE_LOOP('',(#166));
#87=EDGE_LOOP('',(#167));
#88=EDGE_LOOP('',(#168));
#89=EDGE_LOOP('',(#169));
#90=EDGE_LOOP('',(#170));
#91=EDGE_LOOP('',(#171));
#92=CIRCLE('',#196,1.621);
#93=CIRCLE('',#198,2.5);
#94=CIRCLE('',#199,1.621);
#95=CIRCLE('',#202,1.621);
#96=CIRCLE('',#204,2.5);
#97=CIRCLE('',#205,1.621);
#98=CIRCLE('',#208,4.);
#99=CIRCLE('',#209,4.);
#100=CIRCLE('',#211,4.);
#101=CIRCLE('',#213,4.);
#102=CIRCLE('',#215,4.);
#103=CIRCLE('',#217,4.);
#104=CIRCLE('',#219,4.);
#105=CIRCLE('',#221,4.);
#106=CIRCLE('',#223,4.);
#107=CIRCLE('',#225,4.);
#108=VERTEX_POINT('',#298);
#109=VERTEX_POINT('',#301);
#110=VERTEX_POINT('',#303);
#111=VERTEX_POINT('',#307);
#112=VERTEX_POINT('',#310);
#113=VERTEX_POINT('',#312);
#114=VERTEX_POINT('',#316);
#115=VERTEX_POINT('',#318);
#116=VERTEX_POINT('',#321);
#117=VERTEX_POINT('',#324);
#118=VERTEX_POINT('',#327);
#119=VERTEX_POINT('',#330);
#120=VERTEX_POINT('',#333);
#121=VERTEX_POINT('',#336);
#122=VERTEX_POINT('',#339);
#123=VERTEX_POINT('',#342);
#124=EDGE_CURVE('',#108,#108,#92,.T.);
#125=EDGE_CURVE('',#109,#109,#93,.T.);
#126=EDGE_CURVE('',#110,#110,#94,.T.);
#127=EDGE_CURVE('',#111,#111,#95,.T.);
#128=EDGE_CURVE('',#112,#112,#96,.T.);
#129=EDGE_CURVE('',#113,#113,#97,.T.);
#130=EDGE_CURVE('',#114,#114,#98,.T.);
#131=EDGE_CURVE('',#115,#115,#99,.T.);
#132=EDGE_CURVE('',#116,#116,#100,.T.);
#133=EDGE_CURVE('',#117,#117,#101,.T.);
#134=EDGE_CURVE('',#118,#118,#102,.T.);
#135=EDGE_CURVE('',#119,#119,#103,.T.);
#136=EDGE_CURVE('',#120,#120,#104,.T.);
#137=EDGE_CURVE('',#121,#121,#105,.T.);
#138=EDGE_CURVE('',#122,#122,#106,.T.);
#139=EDGE_CURVE('',#123,#123,#107,.T.);
#140=ORIENTED_EDGE('',*,*,#124,.F.);
#141=ORIENTED_EDGE('',*,*,#125,.F.);
#142=ORIENTED_EDGE('',*,*,#126,.T.);
#143=ORIENTED_EDGE('',*,*,#126,.F.);
#144=ORIENTED_EDGE('',*,*,#124,.T.);
#145=ORIENTED_EDGE('',*,*,#127,.F.);
#146=ORIENTED_EDGE('',*,*,#128,.F.);
#147=ORIENTED_EDGE('',*,*,#129,.T.);
#148=ORIENTED_EDGE('',*,*,#129,.F.);
#149=ORIENTED_EDGE('',*,*,#127,.T.);
#150=ORIENTED_EDGE('',*,*,#130,.F.);
#151=ORIENTED_EDGE('',*,*,#131,.T.);
#152=ORIENTED_EDGE('',*,*,#131,.F.);
#153=ORIENTED_EDGE('',*,*,#132,.T.);
#154=ORIENTED_EDGE('',*,*,#132,.F.);
#155=ORIENTED_EDGE('',*,*,#133,.T.);
#156=ORIENTED_EDGE('',*,*,#133,.F.);
#157=ORIENTED_EDGE('',*,*,#134,.T.);
#158=ORIENTED_EDGE('',*,*,#134,.F.);
#159=ORIENTED_EDGE('',*,*,#135,.T.);
#160=ORIENTED_EDGE('',*,*,#135,.F.);
#161=ORIENTED_EDGE('',*,*,#136,.T.);
#162=ORIENTED_EDGE('',*,*,#136,.F.);
#163=ORIENTED_EDGE('',*,*,#137,.T.);
#164=ORIENTED_EDGE('',*,*,#137,.F.);
#165=ORIENTED_EDGE('',*,*,#138,.T.);
#166=ORIENTED_EDGE('',*,*,#138,.F.);
#167=ORIENTED_EDGE('',*,*,#139,.F.);
#168=ORIENTED_EDGE('',*,*,#130,.T.);
#169=ORIENTED_EDGE('',*,*,#128,.T.);
#170=ORIENTED_EDGE('',*,*,#139,.T.);
#171=ORIENTED_EDGE('',*,*,#125,.T.);
#172=CONICAL_SURFACE('',#195,0.8105,59.);
#173=CONICAL_SURFACE('',#197,2.0605,45.);
#174=CONICAL_SURFACE('',#201,0.8105,59.);
#175=CONICAL_SURFACE('',#203,2.0605,45.);
#176=ADVANCED_FACE('',(#43),#172,.F.);
#177=ADVANCED_FACE('',(#44,#28),#173,.F.);
#178=ADVANCED_FACE('',(#45,#29),#21,.F.);
#179=ADVANCED_FACE('',(#46),#174,.F.);
#180=ADVANCED_FACE('',(#47,#30),#175,.F.);
#181=ADVANCED_FACE('',(#48,#31),#22,.F.);
#182=ADVANCED_FACE('',(#49,#32),#23,.T.);
#183=ADVANCED_FACE('',(#50,#33),#17,.T.);
#184=ADVANCED_FACE('',(#51,#34),#24,.T.);
#185=ADVANCED_FACE('',(#52,#35),#18,.T.);
#186=ADVANCED_FACE('',(#53,#36),#25,.T.);
#187=ADVANCED_FACE('',(#54,#37),#19,.T.);
#188=ADVANCED_FACE('',(#55,#38),#26,.T.);
#189=ADVANCED_FACE('',(#56,#39),#20,.T.);
#190=ADVANCED_FACE('',(#57,#40),#27,.T.);
#191=ADVANCED_FACE('',(#58,#41),#15,.T.);
#192=ADVANCED_FACE('',(#59,#42),#16,.F.);
#193=CLOSED_SHELL('',(#176,#177,#178,#179,#180,#181,#182,#183,#184,#185,
#186,#187,#188,#189,#190,#191,#192));
#194=AXIS2_PLACEMENT_3D('placement',#296,#228,#229);
#195=AXIS2_PLACEMENT_3D('',#297,#230,#231);
#196=AXIS2_PLACEMENT_3D('',#299,#232,#233);
#197=AXIS2_PLACEMENT_3D('',#300,#234,#235);
#198=AXIS2_PLACEMENT_3D('',#302,#236,#237);
#199=AXIS2_PLACEMENT_3D('',#304,#238,#239);
#200=AXIS2_PLACEMENT_3D('',#305,#240,#241);
#201=AXIS2_PLACEMENT_3D('',#306,#242,#243);
#202=AXIS2_PLACEMENT_3D('',#308,#244,#245);
#203=AXIS2_PLACEMENT_3D('',#309,#246,#247);
#204=AXIS2_PLACEMENT_3D('',#311,#248,#249);
#205=AXIS2_PLACEMENT_3D('',#313,#250,#251);
#206=AXIS2_PLACEMENT_3D('',#314,#252,#253);
#207=AXIS2_PLACEMENT_3D('',#315,#254,#255);
#208=AXIS2_PLACEMENT_3D('',#317,#256,#257);
#209=AXIS2_PLACEMENT_3D('',#319,#258,#259);
#210=AXIS2_PLACEMENT_3D('',#320,#260,#261);
#211=AXIS2_PLACEMENT_3D('',#322,#262,#263);
#212=AXIS2_PLACEMENT_3D('',#323,#264,#265);
#213=AXIS2_PLACEMENT_3D('',#325,#266,#267);
#214=AXIS2_PLACEMENT_3D('',#326,#268,#269);
#215=AXIS2_PLACEMENT_3D('',#328,#270,#271);
#216=AXIS2_PLACEMENT_3D('',#329,#272,#273);
#217=AXIS2_PLACEMENT_3D('',#331,#274,#275);
#218=AXIS2_PLACEMENT_3D('',#332,#276,#277);
#219=AXIS2_PLACEMENT_3D('',#334,#278,#279);
#220=AXIS2_PLACEMENT_3D('',#335,#280,#281);
#221=AXIS2_PLACEMENT_3D('',#337,#282,#283);
#222=AXIS2_PLACEMENT_3D('',#338,#284,#285);
#223=AXIS2_PLACEMENT_3D('',#340,#286,#287);
#224=AXIS2_PLACEMENT_3D('',#341,#288,#289);
#225=AXIS2_PLACEMENT_3D('',#343,#290,#291);
#226=AXIS2_PLACEMENT_3D('',#344,#292,#293);
#227=AXIS2_PLACEMENT_3D('',#345,#294,#295);
#228=DIRECTION('axis',(0.,0.,1.));
#229=DIRECTION('refdir',(1.,0.,0.));
#230=DIRECTION('center_axis',(0.,-1.,0.));
#231=DIRECTION('ref_axis',(-1.,0.,0.));
#232=DIRECTION('center_axis',(0.,1.,0.));
#233=DIRECTION('ref_axis',(-1.,0.,0.));
#234=DIRECTION('center_axis',(0.,-1.,0.));
#235=DIRECTION('ref_axis',(-1.,0.,0.));
#236=DIRECTION('center_axis',(0.,1.,0.));
#237=DIRECTION('ref_axis',(-1.,0.,0.));
#238=DIRECTION('center_axis',(0.,1.,0.));
#239=DIRECTION('ref_axis',(-1.,0.,0.));
#240=DIRECTION('center_axis',(0.,1.,0.));
#241=DIRECTION('ref_axis',(-1.,0.,0.));
#242=DIRECTION('center_axis',(0.,-1.,0.));
#243=DIRECTION('ref_axis',(-1.,0.,0.));
#244=DIRECTION('center_axis',(0.,1.,0.));
#245=DIRECTION('ref_axis',(-1.,0.,0.));
#246=DIRECTION('center_axis',(0.,-1.,0.));
#247=DIRECTION('ref_axis',(-1.,0.,0.));
#248=DIRECTION('center_axis',(-2.34291072916505E-15,1.,1.22464679914735E-16));
#249=DIRECTION('ref_axis',(-1.,0.,0.));
#250=DIRECTION('center_axis',(0.,1.,0.));
#251=DIRECTION('ref_axis',(-1.,0.,0.));
#252=DIRECTION('center_axis',(0.,1.,0.));
#253=DIRECTION('ref_axis',(-1.,0.,0.));
#254=DIRECTION('center_axis',(1.75690164298435E-47,-1.,0.));
#255=DIRECTION('ref_axis',(-1.,0.,-1.43461906257998E-31));
#256=DIRECTION('center_axis',(2.34291072916505E-15,-1.,-1.22464679914735E-16));
#257=DIRECTION('ref_axis',(-1.,-2.34291072916505E-15,-1.43461906257998E-31));
#258=DIRECTION('center_axis',(2.34291072916505E-15,-1.,-1.22464679914735E-16));
#259=DIRECTION('ref_axis',(-1.,-2.34291072916505E-15,-1.43461906257998E-31));
#260=DIRECTION('center_axis',(-1.,0.,8.78450821492177E-48));
#261=DIRECTION('ref_axis',(0.,0.,1.));
#262=DIRECTION('center_axis',(2.34291072916505E-15,6.12323399573677E-17,
-1.));
#263=DIRECTION('ref_axis',(-1.,0.,-2.34291072916505E-15));
#264=DIRECTION('center_axis',(8.78450821492177E-48,0.,-1.));
#265=DIRECTION('ref_axis',(-1.,0.,0.));
#266=DIRECTION('center_axis',(2.34291072916505E-15,6.12323399573677E-17,
-1.));
#267=DIRECTION('ref_axis',(-1.,0.,-2.34291072916505E-15));
#268=DIRECTION('center_axis',(0.,1.,0.));
#269=DIRECTION('ref_axis',(0.,0.,1.));
#270=DIRECTION('center_axis',(1.,6.12323399573677E-17,6.12323399573677E-17));
#271=DIRECTION('ref_axis',(6.12323399573677E-17,0.,-1.));
#272=DIRECTION('center_axis',(1.,0.,2.29584502165847E-49));
#273=DIRECTION('ref_axis',(0.,0.,-1.));
#274=DIRECTION('center_axis',(1.,6.12323399573677E-17,6.12323399573677E-17));
#275=DIRECTION('ref_axis',(6.12323399573677E-17,0.,-1.));
#276=DIRECTION('center_axis',(0.,1.,0.));
#277=DIRECTION('ref_axis',(0.,0.,1.));
#278=DIRECTION('center_axis',(0.,6.12323399573677E-17,1.));
#279=DIRECTION('ref_axis',(1.,0.,0.));
#280=DIRECTION('center_axis',(0.,0.,1.));
#281=DIRECTION('ref_axis',(1.,0.,0.));
#282=DIRECTION('center_axis',(0.,6.12323399573677E-17,1.));
#283=DIRECTION('ref_axis',(1.,0.,0.));
#284=DIRECTION('center_axis',(1.,0.,0.));
#285=DIRECTION('ref_axis',(0.,0.,-1.));
#286=DIRECTION('center_axis',(0.,1.,0.));
#287=DIRECTION('ref_axis',(1.,0.,0.));
#288=DIRECTION('center_axis',(0.,1.,0.));
#289=DIRECTION('ref_axis',(1.,0.,0.));
#290=DIRECTION('center_axis',(0.,-1.,0.));
#291=DIRECTION('ref_axis',(1.,0.,0.));
#292=DIRECTION('center_axis',(2.34291072916505E-15,-1.,-1.22464679914735E-16));
#293=DIRECTION('ref_axis',(0.,-1.22464679914735E-16,1.));
#294=DIRECTION('center_axis',(0.,1.,0.));
#295=DIRECTION('ref_axis',(0.,0.,1.));
#296=CARTESIAN_POINT('',(0.,0.,0.));
#297=CARTESIAN_POINT('Origin',(0.,7.48699753172184,0.));
#298=CARTESIAN_POINT('',(-1.621,7.,0.));
#299=CARTESIAN_POINT('Origin',(0.,7.,0.));
#300=CARTESIAN_POINT('Origin',(0.,0.4395,0.));
#301=CARTESIAN_POINT('',(-2.5,0.,0.));
#302=CARTESIAN_POINT('Origin',(0.,0.,0.));
#303=CARTESIAN_POINT('',(-1.621,0.879,0.));
#304=CARTESIAN_POINT('Origin',(0.,0.879,0.));
#305=CARTESIAN_POINT('Origin',(0.,3.5,0.));
#306=CARTESIAN_POINT('Origin',(100.,7.48699753172184,0.));
#307=CARTESIAN_POINT('',(98.379,7.,0.));
#308=CARTESIAN_POINT('Origin',(100.,7.,0.));
#309=CARTESIAN_POINT('Origin',(100.,0.4395,0.));
#310=CARTESIAN_POINT('',(97.5,0.,0.));
#311=CARTESIAN_POINT('Origin',(100.,-2.22044604925031E-15,0.));
#312=CARTESIAN_POINT('',(98.379,0.879,0.));
#313=CARTESIAN_POINT('Origin',(100.,0.879,0.));
#314=CARTESIAN_POINT('Origin',(100.,3.5,0.));
#315=CARTESIAN_POINT('Origin',(100.,15.2,0.));
#316=CARTESIAN_POINT('',(104.,8.88178419700125E-15,-1.11022302462516E-15));
#317=CARTESIAN_POINT('Origin',(100.,0.,0.));
#318=CARTESIAN_POINT('',(104.,15.2,-1.11022302462516E-15));
#319=CARTESIAN_POINT('Origin',(100.,15.2,0.));
#320=CARTESIAN_POINT('Origin',(100.,15.2,8.));
#321=CARTESIAN_POINT('',(104.,23.2,8.00000000000001));
#322=CARTESIAN_POINT('Origin',(100.,23.2,8.));
#323=CARTESIAN_POINT('Origin',(100.,23.2,24.));
#324=CARTESIAN_POINT('',(104.,23.2,24.));
#325=CARTESIAN_POINT('Origin',(100.,23.2,24.));
#326=CARTESIAN_POINT('Origin',(92.,23.2,24.));
#327=CARTESIAN_POINT('',(92.,23.2,36.));
#328=CARTESIAN_POINT('Origin',(92.,23.2,32.));
#329=CARTESIAN_POINT('Origin',(8.,23.2,32.));
#330=CARTESIAN_POINT('',(8.,23.2,36.));
#331=CARTESIAN_POINT('Origin',(8.,23.2,32.));
#332=CARTESIAN_POINT('Origin',(8.,23.2,24.));
#333=CARTESIAN_POINT('',(-4.,23.2,24.));
#334=CARTESIAN_POINT('Origin',(0.,23.2,24.));
#335=CARTESIAN_POINT('Origin',(0.,23.2,8.));
#336=CARTESIAN_POINT('',(-4.,23.2,8.));
#337=CARTESIAN_POINT('Origin',(0.,23.2,8.));
#338=CARTESIAN_POINT('Origin',(0.,15.2,8.));
#339=CARTESIAN_POINT('',(-4.,15.2,4.89858719658941E-16));
#340=CARTESIAN_POINT('Origin',(0.,15.2,0.));
#341=CARTESIAN_POINT('Origin',(0.,0.,0.));
#342=CARTESIAN_POINT('',(-4.,0.,4.89858719658941E-16));
#343=CARTESIAN_POINT('Origin',(0.,0.,0.));
#344=CARTESIAN_POINT('Origin',(100.,-2.22044604925031E-15,2.46519032881566E-31));
#345=CARTESIAN_POINT('Origin',(2.72118023435153E-16,0.,0.));
#346=UNCERTAINTY_MEASURE_WITH_UNIT(LENGTH_MEASURE(0.01),#350,
'DISTANCE_ACCURACY_VALUE',
'Maximum model space distance between geometric entities at asserted c
onnectivities');
#347=UNCERTAINTY_MEASURE_WITH_UNIT(LENGTH_MEASURE(1.E-6),#350,
'DISTANCE_ACCURACY_VALUE',
'Maximum model space distance between geometric entities at asserted c
onnectivities');
#348=(
GEOMETRIC_REPRESENTATION_CONTEXT(3)
GLOBAL_UNCERTAINTY_ASSIGNED_CONTEXT((#346))
GLOBAL_UNIT_ASSIGNED_CONTEXT((#350,#353,#351))
REPRESENTATION_CONTEXT('','3D')
);
#349=(
GEOMETRIC_REPRESENTATION_CONTEXT(3)
GLOBAL_UNCERTAINTY_ASSIGNED_CONTEXT((#347))
GLOBAL_UNIT_ASSIGNED_CONTEXT((#350,#353,#351))
REPRESENTATION_CONTEXT('','3D')
);
#350=(
LENGTH_UNIT()
NAMED_UNIT(*)
SI_UNIT(.MILLI.,.METRE.)
);
#351=(
NAMED_UNIT(*)
SI_UNIT($,.STERADIAN.)
SOLID_ANGLE_UNIT()
);
#352=DIMENSIONAL_EXPONENTS(0.,0.,0.,0.,0.,0.,0.);
#353=(
CONVERSION_BASED_UNIT('degree',#355)
NAMED_UNIT(#352)
PLANE_ANGLE_UNIT()
);
#354=(
NAMED_UNIT(*)
PLANE_ANGLE_UNIT()
SI_UNIT($,.RADIAN.)
);
#355=PLANE_ANGLE_MEASURE_WITH_UNIT(PLANE_ANGLE_MEASURE(0.01745329252),#354);
#356=SHAPE_DEFINITION_REPRESENTATION(#357,#358);
#357=PRODUCT_DEFINITION_SHAPE('',$,#360);
#358=SHAPE_REPRESENTATION('',(#194),#348);
#359=PRODUCT_DEFINITION_CONTEXT('part definition',#364,'design');
#360=PRODUCT_DEFINITION('A-GST8-100','A-GST8-100',#361,#359);
#361=PRODUCT_DEFINITION_FORMATION('',$,#366);
#362=PRODUCT_RELATED_PRODUCT_CATEGORY('A-GST8-100','A-GST8-100',(#366));
#363=APPLICATION_PROTOCOL_DEFINITION('international standard',
'automotive_design',2009,#364);
#364=APPLICATION_CONTEXT(
'Core Data for Automotive Mechanical Design Process');
#365=PRODUCT_CONTEXT('part definition',#364,'mechanical');
#366=PRODUCT('A-GST8-100','A-GST8-100',$,(#365));
#367=PRESENTATION_STYLE_ASSIGNMENT((#368));
#368=SURFACE_STYLE_USAGE(.BOTH.,#369);
#369=SURFACE_SIDE_STYLE($,(#370));
#370=SURFACE_STYLE_FILL_AREA(#371);
#371=FILL_AREA_STYLE($,(#372));
#372=FILL_AREA_STYLE_COLOUR($,#373);
#373=COLOUR_RGB('',1.,1.,1.);
ENDSEC;
END-ISO-10303-21;
