ISO-10303-21;
HEADER;
/* Generated by software containing ST-Developer
 * from STEP Tools, Inc. (www.steptools.com) 
 */

FILE_DESCRIPTION(
/* description */ (''),
/* implementation_level */ '2;1');

FILE_NAME(
/* name */ '\\\\SYNOLOGYNAS\\web\\db2\\A-CS4-32-316\\\X2\B3C4BA74\X0\\\
A-CS4_M.stp',
/* time_stamp */ '2023-03-28T10:42:00+09:00',
/* author */ ('user'),
/* organization */ (''),
/* preprocessor_version */ 'ST-DEVELOPER v15.6',
/* originating_system */ 'Autodesk Inventor 2015',
/* authorisation */ '');

FILE_SCHEMA (('AUTOMOTIVE_DESIGN { 1 0 10303 214 3 1 1 }'));
ENDSEC;

DATA;
#10=MECHANICAL_DESIGN_GEOMETRIC_PRESENTATION_REPRESENTATION('',(#23,#24),
#348);
#11=ITEM_DEFINED_TRANSFORMATION($,$,#187,#220);
#12=ITEM_DEFINED_TRANSFORMATION($,$,#203,#221);
#13=(
REPRESENTATION_RELATIONSHIP($,$,#363,#365)
REPRESENTATION_RELATIONSHIP_WITH_TRANSFORMATION(#11)
SHAPE_REPRESENTATION_RELATIONSHIP()
);
#14=(
REPRESENTATION_RELATIONSHIP($,$,#364,#365)
REPRESENTATION_RELATIONSHIP_WITH_TRANSFORMATION(#12)
SHAPE_REPRESENTATION_RELATIONSHIP()
);
#15=CONTEXT_DEPENDENT_SHAPE_REPRESENTATION(#13,#361);
#16=CONTEXT_DEPENDENT_SHAPE_REPRESENTATION(#14,#362);
#17=NEXT_ASSEMBLY_USAGE_OCCURRENCE('A-CS4-25-316:1',$,$,#369,#367,$);
#18=NEXT_ASSEMBLY_USAGE_OCCURRENCE('A-CS4-32-316:1',$,$,#369,#368,$);
#19=SHAPE_REPRESENTATION_RELATIONSHIP('SRR','None',#363,#21);
#20=SHAPE_REPRESENTATION_RELATIONSHIP('SRR','None',#364,#22);
#21=ADVANCED_BREP_SHAPE_REPRESENTATION($,(#25),#345);
#22=ADVANCED_BREP_SHAPE_REPRESENTATION($,(#26),#346);
#23=STYLED_ITEM('',(#382),#25);
#24=STYLED_ITEM('',(#382),#26);
#25=MANIFOLD_SOLID_BREP('\X2\C194B9ACB4DC\X0\1',#185);
#26=MANIFOLD_SOLID_BREP('\X2\C194B9ACB4DC\X0\2',#186);
#27=PLANE('',#202);
#28=PLANE('',#218);
#29=TOROIDAL_SURFACE('',#198,16.7205882352941,12.7205882352941);
#30=TOROIDAL_SURFACE('',#214,16.,12.);
#31=SPHERICAL_SURFACE('',#192,50.5000000000001);
#32=SPHERICAL_SURFACE('',#208,95.0312500000003);
#33=FACE_BOUND('',#69,.T.);
#34=FACE_BOUND('',#72,.T.);
#35=FACE_BOUND('',#74,.T.);
#36=FACE_BOUND('',#76,.T.);
#37=FACE_BOUND('',#78,.T.);
#38=FACE_BOUND('',#80,.T.);
#39=FACE_BOUND('',#83,.T.);
#40=FACE_BOUND('',#86,.T.);
#41=FACE_BOUND('',#88,.T.);
#42=FACE_BOUND('',#90,.T.);
#43=FACE_BOUND('',#92,.T.);
#44=FACE_BOUND('',#94,.T.);
#45=CYLINDRICAL_SURFACE('',#190,1.621);
#46=CYLINDRICAL_SURFACE('',#196,12.5);
#47=CYLINDRICAL_SURFACE('',#200,4.);
#48=CYLINDRICAL_SURFACE('',#206,1.621);
#49=CYLINDRICAL_SURFACE('',#212,16.);
#50=CYLINDRICAL_SURFACE('',#216,4.00000000000003);
#51=FACE_OUTER_BOUND('',#67,.T.);
#52=FACE_OUTER_BOUND('',#68,.T.);
#53=FACE_OUTER_BOUND('',#70,.T.);
#54=FACE_OUTER_BOUND('',#71,.T.);
#55=FACE_OUTER_BOUND('',#73,.T.);
#56=FACE_OUTER_BOUND('',#75,.T.);
#57=FACE_OUTER_BOUND('',#77,.T.);
#58=FACE_OUTER_BOUND('',#79,.T.);
#59=FACE_OUTER_BOUND('',#81,.T.);
#60=FACE_OUTER_BOUND('',#82,.T.);
#61=FACE_OUTER_BOUND('',#84,.T.);
#62=FACE_OUTER_BOUND('',#85,.T.);
#63=FACE_OUTER_BOUND('',#87,.T.);
#64=FACE_OUTER_BOUND('',#89,.T.);
#65=FACE_OUTER_BOUND('',#91,.T.);
#66=FACE_OUTER_BOUND('',#93,.T.);
#67=EDGE_LOOP('',(#137));
#68=EDGE_LOOP('',(#138));
#69=EDGE_LOOP('',(#139));
#70=EDGE_LOOP('',(#140));
#71=EDGE_LOOP('',(#141));
#72=EDGE_LOOP('',(#142));
#73=EDGE_LOOP('',(#143));
#74=EDGE_LOOP('',(#144));
#75=EDGE_LOOP('',(#145));
#76=EDGE_LOOP('',(#146));
#77=EDGE_LOOP('',(#147));
#78=EDGE_LOOP('',(#148));
#79=EDGE_LOOP('',(#149));
#80=EDGE_LOOP('',(#150));
#81=EDGE_LOOP('',(#151));
#82=EDGE_LOOP('',(#152));
#83=EDGE_LOOP('',(#153));
#84=EDGE_LOOP('',(#154));
#85=EDGE_LOOP('',(#155));
#86=EDGE_LOOP('',(#156));
#87=EDGE_LOOP('',(#157));
#88=EDGE_LOOP('',(#158));
#89=EDGE_LOOP('',(#159));
#90=EDGE_LOOP('',(#160));
#91=EDGE_LOOP('',(#161));
#92=EDGE_LOOP('',(#162));
#93=EDGE_LOOP('',(#163));
#94=EDGE_LOOP('',(#164));
#95=CIRCLE('',#189,1.621);
#96=CIRCLE('',#191,1.621);
#97=CIRCLE('',#193,10.);
#98=CIRCLE('',#195,12.5);
#99=CIRCLE('',#197,12.5);
#100=CIRCLE('',#199,4.);
#101=CIRCLE('',#201,4.);
#102=CIRCLE('',#205,1.621);
#103=CIRCLE('',#207,1.621);
#104=CIRCLE('',#209,13.75);
#105=CIRCLE('',#211,16.);
#106=CIRCLE('',#213,16.);
#107=CIRCLE('',#215,4.00000000000002);
#108=CIRCLE('',#217,4.00000000000004);
#109=VERTEX_POINT('',#294);
#110=VERTEX_POINT('',#297);
#111=VERTEX_POINT('',#300);
#112=VERTEX_POINT('',#303);
#113=VERTEX_POINT('',#306);
#114=VERTEX_POINT('',#309);
#115=VERTEX_POINT('',#312);
#116=VERTEX_POINT('',#317);
#117=VERTEX_POINT('',#320);
#118=VERTEX_POINT('',#323);
#119=VERTEX_POINT('',#326);
#120=VERTEX_POINT('',#329);
#121=VERTEX_POINT('',#332);
#122=VERTEX_POINT('',#335);
#123=EDGE_CURVE('',#109,#109,#95,.T.);
#124=EDGE_CURVE('',#110,#110,#96,.T.);
#125=EDGE_CURVE('',#111,#111,#97,.T.);
#126=EDGE_CURVE('',#112,#112,#98,.T.);
#127=EDGE_CURVE('',#113,#113,#99,.T.);
#128=EDGE_CURVE('',#114,#114,#100,.T.);
#129=EDGE_CURVE('',#115,#115,#101,.T.);
#130=EDGE_CURVE('',#116,#116,#102,.T.);
#131=EDGE_CURVE('',#117,#117,#103,.T.);
#132=EDGE_CURVE('',#118,#118,#104,.T.);
#133=EDGE_CURVE('',#119,#119,#105,.T.);
#134=EDGE_CURVE('',#120,#120,#106,.T.);
#135=EDGE_CURVE('',#121,#121,#107,.T.);
#136=EDGE_CURVE('',#122,#122,#108,.T.);
#137=ORIENTED_EDGE('',*,*,#123,.T.);
#138=ORIENTED_EDGE('',*,*,#124,.F.);
#139=ORIENTED_EDGE('',*,*,#123,.F.);
#140=ORIENTED_EDGE('',*,*,#125,.F.);
#141=ORIENTED_EDGE('',*,*,#125,.T.);
#142=ORIENTED_EDGE('',*,*,#126,.F.);
#143=ORIENTED_EDGE('',*,*,#126,.T.);
#144=ORIENTED_EDGE('',*,*,#127,.F.);
#145=ORIENTED_EDGE('',*,*,#127,.T.);
#146=ORIENTED_EDGE('',*,*,#128,.F.);
#147=ORIENTED_EDGE('',*,*,#128,.T.);
#148=ORIENTED_EDGE('',*,*,#129,.F.);
#149=ORIENTED_EDGE('',*,*,#129,.T.);
#150=ORIENTED_EDGE('',*,*,#124,.T.);
#151=ORIENTED_EDGE('',*,*,#130,.T.);
#152=ORIENTED_EDGE('',*,*,#131,.F.);
#153=ORIENTED_EDGE('',*,*,#130,.F.);
#154=ORIENTED_EDGE('',*,*,#132,.F.);
#155=ORIENTED_EDGE('',*,*,#132,.T.);
#156=ORIENTED_EDGE('',*,*,#133,.F.);
#157=ORIENTED_EDGE('',*,*,#133,.T.);
#158=ORIENTED_EDGE('',*,*,#134,.F.);
#159=ORIENTED_EDGE('',*,*,#134,.T.);
#160=ORIENTED_EDGE('',*,*,#135,.F.);
#161=ORIENTED_EDGE('',*,*,#135,.T.);
#162=ORIENTED_EDGE('',*,*,#136,.F.);
#163=ORIENTED_EDGE('',*,*,#136,.T.);
#164=ORIENTED_EDGE('',*,*,#131,.T.);
#165=CONICAL_SURFACE('',#188,0.8105,59.);
#166=CONICAL_SURFACE('',#194,11.25,32.0053832080835);
#167=CONICAL_SURFACE('',#204,0.8105,59.);
#168=CONICAL_SURFACE('',#210,14.875,29.3577535427914);
#169=ADVANCED_FACE('',(#51),#165,.F.);
#170=ADVANCED_FACE('',(#52,#33),#45,.F.);
#171=ADVANCED_FACE('',(#53),#31,.F.);
#172=ADVANCED_FACE('',(#54,#34),#166,.T.);
#173=ADVANCED_FACE('',(#55,#35),#46,.T.);
#174=ADVANCED_FACE('',(#56,#36),#29,.F.);
#175=ADVANCED_FACE('',(#57,#37),#47,.T.);
#176=ADVANCED_FACE('',(#58,#38),#27,.T.);
#177=ADVANCED_FACE('',(#59),#167,.F.);
#178=ADVANCED_FACE('',(#60,#39),#48,.F.);
#179=ADVANCED_FACE('',(#61),#32,.F.);
#180=ADVANCED_FACE('',(#62,#40),#168,.T.);
#181=ADVANCED_FACE('',(#63,#41),#49,.T.);
#182=ADVANCED_FACE('',(#64,#42),#30,.F.);
#183=ADVANCED_FACE('',(#65,#43),#50,.T.);
#184=ADVANCED_FACE('',(#66,#44),#28,.T.);
#185=CLOSED_SHELL('',(#169,#170,#171,#172,#173,#174,#175,#176));
#186=CLOSED_SHELL('',(#177,#178,#179,#180,#181,#182,#183,#184));
#187=AXIS2_PLACEMENT_3D('placement',#292,#222,#223);
#188=AXIS2_PLACEMENT_3D('',#293,#224,#225);
#189=AXIS2_PLACEMENT_3D('',#295,#226,#227);
#190=AXIS2_PLACEMENT_3D('',#296,#228,#229);
#191=AXIS2_PLACEMENT_3D('',#298,#230,#231);
#192=AXIS2_PLACEMENT_3D('',#299,#232,#233);
#193=AXIS2_PLACEMENT_3D('',#301,#234,#235);
#194=AXIS2_PLACEMENT_3D('',#302,#236,#237);
#195=AXIS2_PLACEMENT_3D('',#304,#238,#239);
#196=AXIS2_PLACEMENT_3D('',#305,#240,#241);
#197=AXIS2_PLACEMENT_3D('',#307,#242,#243);
#198=AXIS2_PLACEMENT_3D('',#308,#244,#245);
#199=AXIS2_PLACEMENT_3D('',#310,#246,#247);
#200=AXIS2_PLACEMENT_3D('',#311,#248,#249);
#201=AXIS2_PLACEMENT_3D('',#313,#250,#251);
#202=AXIS2_PLACEMENT_3D('',#314,#252,#253);
#203=AXIS2_PLACEMENT_3D('placement',#315,#254,#255);
#204=AXIS2_PLACEMENT_3D('',#316,#256,#257);
#205=AXIS2_PLACEMENT_3D('',#318,#258,#259);
#206=AXIS2_PLACEMENT_3D('',#319,#260,#261);
#207=AXIS2_PLACEMENT_3D('',#321,#262,#263);
#208=AXIS2_PLACEMENT_3D('',#322,#264,#265);
#209=AXIS2_PLACEMENT_3D('',#324,#266,#267);
#210=AXIS2_PLACEMENT_3D('',#325,#268,#269);
#211=AXIS2_PLACEMENT_3D('',#327,#270,#271);
#212=AXIS2_PLACEMENT_3D('',#328,#272,#273);
#213=AXIS2_PLACEMENT_3D('',#330,#274,#275);
#214=AXIS2_PLACEMENT_3D('',#331,#276,#277);
#215=AXIS2_PLACEMENT_3D('',#333,#278,#279);
#216=AXIS2_PLACEMENT_3D('',#334,#280,#281);
#217=AXIS2_PLACEMENT_3D('',#336,#282,#283);
#218=AXIS2_PLACEMENT_3D('',#337,#284,#285);
#219=AXIS2_PLACEMENT_3D('placement',#338,#286,#287);
#220=AXIS2_PLACEMENT_3D('',#339,#288,#289);
#221=AXIS2_PLACEMENT_3D('',#340,#290,#291);
#222=DIRECTION('axis',(0.,0.,1.));
#223=DIRECTION('refdir',(1.,0.,0.));
#224=DIRECTION('center_axis',(0.,-1.,0.));
#225=DIRECTION('ref_axis',(1.,0.,0.));
#226=DIRECTION('center_axis',(0.,-1.,0.));
#227=DIRECTION('ref_axis',(1.,0.,0.));
#228=DIRECTION('center_axis',(0.,-1.,0.));
#229=DIRECTION('ref_axis',(1.,0.,0.));
#230=DIRECTION('center_axis',(0.,1.,0.));
#231=DIRECTION('ref_axis',(1.,0.,0.));
#232=DIRECTION('center_axis',(6.12323399573676E-17,0.,1.));
#233=DIRECTION('ref_axis',(1.,0.,0.));
#234=DIRECTION('center_axis',(0.,-1.,0.));
#235=DIRECTION('ref_axis',(1.,0.,0.));
#236=DIRECTION('center_axis',(0.,-1.,0.));
#237=DIRECTION('ref_axis',(1.,0.,0.));
#238=DIRECTION('center_axis',(0.,-1.,0.));
#239=DIRECTION('ref_axis',(1.,0.,0.));
#240=DIRECTION('center_axis',(0.,-1.,0.));
#241=DIRECTION('ref_axis',(1.,0.,0.));
#242=DIRECTION('center_axis',(0.,-1.,0.));
#243=DIRECTION('ref_axis',(1.,0.,0.));
#244=DIRECTION('center_axis',(0.,-1.,0.));
#245=DIRECTION('ref_axis',(0.,0.,-1.));
#246=DIRECTION('center_axis',(0.,-1.,0.));
#247=DIRECTION('ref_axis',(1.,0.,0.));
#248=DIRECTION('center_axis',(0.,-1.,0.));
#249=DIRECTION('ref_axis',(1.,0.,0.));
#250=DIRECTION('center_axis',(0.,-1.,0.));
#251=DIRECTION('ref_axis',(1.,0.,0.));
#252=DIRECTION('center_axis',(0.,-1.,0.));
#253=DIRECTION('ref_axis',(0.,0.,-1.));
#254=DIRECTION('axis',(0.,0.,1.));
#255=DIRECTION('refdir',(1.,0.,0.));
#256=DIRECTION('center_axis',(-1.40834381901946E-15,-1.,0.));
#257=DIRECTION('ref_axis',(1.,-1.40834381901946E-15,0.));
#258=DIRECTION('center_axis',(-1.40834381901946E-15,-1.,0.));
#259=DIRECTION('ref_axis',(1.,-1.40834381901946E-15,0.));
#260=DIRECTION('center_axis',(-1.40834381901946E-15,-1.,0.));
#261=DIRECTION('ref_axis',(1.,-1.40834381901946E-15,0.));
#262=DIRECTION('center_axis',(1.40834381901946E-15,1.,0.));
#263=DIRECTION('ref_axis',(1.,-1.40834381901946E-15,0.));
#264=DIRECTION('center_axis',(6.12323399573677E-17,0.,1.));
#265=DIRECTION('ref_axis',(1.,0.,0.));
#266=DIRECTION('center_axis',(-1.40834381901946E-15,-1.,0.));
#267=DIRECTION('ref_axis',(1.,-1.40834381901946E-15,0.));
#268=DIRECTION('center_axis',(-1.40834381901946E-15,-1.,0.));
#269=DIRECTION('ref_axis',(1.,-2.55609742674599E-15,0.));
#270=DIRECTION('center_axis',(-1.40834381901946E-15,-1.,0.));
#271=DIRECTION('ref_axis',(1.,-1.40834381901946E-15,0.));
#272=DIRECTION('center_axis',(-1.40834381901946E-15,-1.,0.));
#273=DIRECTION('ref_axis',(1.,-2.55609742674599E-15,0.));
#274=DIRECTION('center_axis',(-1.40834381901946E-15,-1.,0.));
#275=DIRECTION('ref_axis',(1.,-1.40834381901946E-15,0.));
#276=DIRECTION('center_axis',(-1.40834381901946E-15,-1.,0.));
#277=DIRECTION('ref_axis',(0.,0.,-1.));
#278=DIRECTION('center_axis',(-1.40834381901946E-15,-1.,0.));
#279=DIRECTION('ref_axis',(1.,-1.40834381901946E-15,0.));
#280=DIRECTION('center_axis',(-1.40834381901946E-15,-1.,0.));
#281=DIRECTION('ref_axis',(1.,-2.55609742674599E-15,0.));
#282=DIRECTION('center_axis',(-1.40834381901946E-15,-1.,0.));
#283=DIRECTION('ref_axis',(1.,-1.40834381901946E-15,0.));
#284=DIRECTION('center_axis',(-1.40834381901946E-15,-1.,0.));
#285=DIRECTION('ref_axis',(0.,0.,-1.));
#286=DIRECTION('axis',(0.,0.,1.));
#287=DIRECTION('refdir',(1.,0.,0.));
#288=DIRECTION('',(0.,0.,1.));
#289=DIRECTION('',(1.,0.,0.));
#290=DIRECTION('',(7.18175519054395E-16,1.45716771982051E-15,1.));
#291=DIRECTION('',(1.,-2.77555756156288E-15,-7.18175519054391E-16));
#292=CARTESIAN_POINT('',(0.,0.,0.));
#293=CARTESIAN_POINT('Origin',(0.,10.4869975317218,0.));
#294=CARTESIAN_POINT('',(1.621,10.,0.));
#295=CARTESIAN_POINT('Origin',(0.,10.,0.));
#296=CARTESIAN_POINT('Origin',(0.,5.,0.));
#297=CARTESIAN_POINT('',(1.621,0.,0.));
#298=CARTESIAN_POINT('Origin',(0.,0.,0.));
#299=CARTESIAN_POINT('Origin',(-1.3766765505352E-14,74.5000000000001,0.));
#300=CARTESIAN_POINT('',(10.,25.,0.));
#301=CARTESIAN_POINT('Origin',(0.,25.,0.));
#302=CARTESIAN_POINT('Origin',(0.,23.,0.));
#303=CARTESIAN_POINT('',(12.5,21.,0.));
#304=CARTESIAN_POINT('Origin',(0.,21.,0.));
#305=CARTESIAN_POINT('Origin',(0.,20.5,0.));
#306=CARTESIAN_POINT('',(12.5,20.,0.));
#307=CARTESIAN_POINT('Origin',(0.,20.,0.));
#308=CARTESIAN_POINT('Origin',(0.,8.,0.));
#309=CARTESIAN_POINT('',(4.,8.,0.));
#310=CARTESIAN_POINT('Origin',(0.,8.,0.));
#311=CARTESIAN_POINT('Origin',(0.,4.,0.));
#312=CARTESIAN_POINT('',(4.,0.,0.));
#313=CARTESIAN_POINT('Origin',(0.,0.,0.));
#314=CARTESIAN_POINT('Origin',(0.,0.,0.));
#315=CARTESIAN_POINT('',(0.,0.,0.));
#316=CARTESIAN_POINT('Origin',(-2.04392973216138E-14,10.4869975317218,0.));
#317=CARTESIAN_POINT('',(1.62099999999998,10.,0.));
#318=CARTESIAN_POINT('Origin',(-2.11251572852919E-14,10.,0.));
#319=CARTESIAN_POINT('Origin',(-2.81668763803893E-14,5.,0.));
#320=CARTESIAN_POINT('',(1.62099999999996,-2.2829253306305E-15,0.));
#321=CARTESIAN_POINT('Origin',(-3.52085954754866E-14,0.,0.));
#322=CARTESIAN_POINT('Origin',(-1.77635683940025E-14,119.03125,0.));
#323=CARTESIAN_POINT('',(13.75,25.,0.));
#324=CARTESIAN_POINT('Origin',(2.76101316827354E-29,25.,0.));
#325=CARTESIAN_POINT('Origin',(-2.8166876380389E-15,23.,0.));
#326=CARTESIAN_POINT('',(16.,21.,0.));
#327=CARTESIAN_POINT('Origin',(-5.63337527607782E-15,21.,0.));
#328=CARTESIAN_POINT('Origin',(-6.33754718558755E-15,20.5,0.));
#329=CARTESIAN_POINT('',(16.,20.,0.));
#330=CARTESIAN_POINT('Origin',(-7.04171909509728E-15,20.,0.));
#331=CARTESIAN_POINT('Origin',(-2.39418449233308E-14,8.00000000000002,0.));
#332=CARTESIAN_POINT('',(4.,8.,0.));
#333=CARTESIAN_POINT('Origin',(-2.39418449233309E-14,8.00000000000001,0.));
#334=CARTESIAN_POINT('Origin',(-2.95752201994087E-14,4.00000000000001,0.));
#335=CARTESIAN_POINT('',(4.,0.,0.));
#336=CARTESIAN_POINT('Origin',(-3.52085954754866E-14,5.6333752760779E-15,
0.));
#337=CARTESIAN_POINT('Origin',(0.,0.,0.));
#338=CARTESIAN_POINT('',(0.,0.,0.));
#339=CARTESIAN_POINT('',(-11.0342752414694,-12.0490078423252,0.));
#340=CARTESIAN_POINT('',(33.3753749211352,-11.7184596819685,0.0170852593803428));
#341=UNCERTAINTY_MEASURE_WITH_UNIT(LENGTH_MEASURE(0.01),#349,
'DISTANCE_ACCURACY_VALUE',
'Maximum model space distance between geometric entities at asserted c
onnectivities');
#342=UNCERTAINTY_MEASURE_WITH_UNIT(LENGTH_MEASURE(0.01),#349,
'DISTANCE_ACCURACY_VALUE',
'Maximum model space distance between geometric entities at asserted c
onnectivities');
#343=UNCERTAINTY_MEASURE_WITH_UNIT(LENGTH_MEASURE(0.01),#349,
'DISTANCE_ACCURACY_VALUE',
'Maximum model space distance between geometric entities at asserted c
onnectivities');
#344=UNCERTAINTY_MEASURE_WITH_UNIT(LENGTH_MEASURE(1.E-6),#349,
'DISTANCE_ACCURACY_VALUE',
'Maximum model space distance between geometric entities at asserted c
onnectivities');
#345=(
GEOMETRIC_REPRESENTATION_CONTEXT(3)
GLOBAL_UNCERTAINTY_ASSIGNED_CONTEXT((#341))
GLOBAL_UNIT_ASSIGNED_CONTEXT((#349,#352,#350))
REPRESENTATION_CONTEXT('','3D')
);
#346=(
GEOMETRIC_REPRESENTATION_CONTEXT(3)
GLOBAL_UNCERTAINTY_ASSIGNED_CONTEXT((#342))
GLOBAL_UNIT_ASSIGNED_CONTEXT((#349,#352,#350))
REPRESENTATION_CONTEXT('','3D')
);
#347=(
GEOMETRIC_REPRESENTATION_CONTEXT(3)
GLOBAL_UNCERTAINTY_ASSIGNED_CONTEXT((#343))
GLOBAL_UNIT_ASSIGNED_CONTEXT((#349,#352,#350))
REPRESENTATION_CONTEXT('','3D')
);
#348=(
GEOMETRIC_REPRESENTATION_CONTEXT(3)
GLOBAL_UNCERTAINTY_ASSIGNED_CONTEXT((#344))
GLOBAL_UNIT_ASSIGNED_CONTEXT((#349,#352,#350))
REPRESENTATION_CONTEXT('','3D')
);
#349=(
LENGTH_UNIT()
NAMED_UNIT(*)
SI_UNIT(.MILLI.,.METRE.)
);
#350=(
NAMED_UNIT(*)
SI_UNIT($,.STERADIAN.)
SOLID_ANGLE_UNIT()
);
#351=DIMENSIONAL_EXPONENTS(0.,0.,0.,0.,0.,0.,0.);
#352=(
CONVERSION_BASED_UNIT('degree',#354)
NAMED_UNIT(#351)
PLANE_ANGLE_UNIT()
);
#353=(
NAMED_UNIT(*)
PLANE_ANGLE_UNIT()
SI_UNIT($,.RADIAN.)
);
#354=PLANE_ANGLE_MEASURE_WITH_UNIT(PLANE_ANGLE_MEASURE(0.01745329252),#353);
#355=SHAPE_DEFINITION_REPRESENTATION(#358,#363);
#356=SHAPE_DEFINITION_REPRESENTATION(#359,#364);
#357=SHAPE_DEFINITION_REPRESENTATION(#360,#365);
#358=PRODUCT_DEFINITION_SHAPE('',$,#367);
#359=PRODUCT_DEFINITION_SHAPE('',$,#368);
#360=PRODUCT_DEFINITION_SHAPE('',$,#369);
#361=PRODUCT_DEFINITION_SHAPE($,$,#17);
#362=PRODUCT_DEFINITION_SHAPE($,$,#18);
#363=SHAPE_REPRESENTATION('',(#187),#345);
#364=SHAPE_REPRESENTATION('',(#203),#346);
#365=SHAPE_REPRESENTATION('',(#219,#220,#221),#347);
#366=PRODUCT_DEFINITION_CONTEXT('part definition',#377,'design');
#367=PRODUCT_DEFINITION('A-CS4-25-316','A-CS4-25-316',#370,#366);
#368=PRODUCT_DEFINITION('A-CS4-32-316','A-CS4-32-316',#371,#366);
#369=PRODUCT_DEFINITION('A-CS4_M','A-CS4_M',#372,#366);
#370=PRODUCT_DEFINITION_FORMATION('',$,#379);
#371=PRODUCT_DEFINITION_FORMATION('',$,#380);
#372=PRODUCT_DEFINITION_FORMATION('',$,#381);
#373=PRODUCT_RELATED_PRODUCT_CATEGORY('A-CS4-25-316','A-CS4-25-316',(#379));
#374=PRODUCT_RELATED_PRODUCT_CATEGORY('A-CS4-32-316','A-CS4-32-316',(#380));
#375=PRODUCT_RELATED_PRODUCT_CATEGORY('A-CS4_M','A-CS4_M',(#381));
#376=APPLICATION_PROTOCOL_DEFINITION('international standard',
'automotive_design',2009,#377);
#377=APPLICATION_CONTEXT(
'Core Data for Automotive Mechanical Design Process');
#378=PRODUCT_CONTEXT('part definition',#377,'mechanical');
#379=PRODUCT('A-CS4-25-316','A-CS4-25-316',$,(#378));
#380=PRODUCT('A-CS4-32-316','A-CS4-32-316',$,(#378));
#381=PRODUCT('A-CS4_M','A-CS4_M',$,(#378));
#382=PRESENTATION_STYLE_ASSIGNMENT((#383));
#383=SURFACE_STYLE_USAGE(.BOTH.,#384);
#384=SURFACE_SIDE_STYLE($,(#385));
#385=SURFACE_STYLE_FILL_AREA(#386);
#386=FILL_AREA_STYLE($,(#387));
#387=FILL_AREA_STYLE_COLOUR($,#388);
#388=COLOUR_RGB('',1.,1.,1.);
ENDSEC;
END-ISO-10303-21;
