ISO-10303-21;
HEADER;
/* Generated by software containing ST-Developer
 * from STEP Tools, Inc. (www.steptools.com) 
 */

FILE_DESCRIPTION(
/* description */ (''),
/* implementation_level */ '2;1');

FILE_NAME(
/* name */ '\\\\SYNOLOGYNAS\\web\\db2\\A-CS3-16\\\X2\B3C4BA74\X0\\\A-C
S3_M.stp',
/* time_stamp */ '2023-03-28T13:03:28+09:00',
/* author */ ('user'),
/* organization */ (''),
/* preprocessor_version */ 'ST-DEVELOPER v15.6',
/* originating_system */ 'Autodesk Inventor 2015',
/* authorisation */ '');

FILE_SCHEMA (('AUTOMOTIVE_DESIGN { 1 0 10303 214 3 1 1 }'));
ENDSEC;

DATA;
#10=MECHANICAL_DESIGN_GEOMETRIC_PRESENTATION_REPRESENTATION('',(#29,#31,
#30),#493);
#11=ITEM_DEFINED_TRANSFORMATION($,$,#264,#311);
#12=ITEM_DEFINED_TRANSFORMATION($,$,#282,#312);
#13=ITEM_DEFINED_TRANSFORMATION($,$,#296,#313);
#14=(
REPRESENTATION_RELATIONSHIP($,$,#511,#514)
REPRESENTATION_RELATIONSHIP_WITH_TRANSFORMATION(#11)
SHAPE_REPRESENTATION_RELATIONSHIP()
);
#15=(
REPRESENTATION_RELATIONSHIP($,$,#512,#514)
REPRESENTATION_RELATIONSHIP_WITH_TRANSFORMATION(#12)
SHAPE_REPRESENTATION_RELATIONSHIP()
);
#16=(
REPRESENTATION_RELATIONSHIP($,$,#513,#514)
REPRESENTATION_RELATIONSHIP_WITH_TRANSFORMATION(#13)
SHAPE_REPRESENTATION_RELATIONSHIP()
);
#17=CONTEXT_DEPENDENT_SHAPE_REPRESENTATION(#14,#508);
#18=CONTEXT_DEPENDENT_SHAPE_REPRESENTATION(#15,#509);
#19=CONTEXT_DEPENDENT_SHAPE_REPRESENTATION(#16,#510);
#20=NEXT_ASSEMBLY_USAGE_OCCURRENCE('A-CS3-16:1',$,$,#519,#516,$);
#21=NEXT_ASSEMBLY_USAGE_OCCURRENCE('A-CS3-20-316:1',$,$,#519,#517,$);
#22=NEXT_ASSEMBLY_USAGE_OCCURRENCE('A-CS3-24-316:1',$,$,#519,#518,$);
#23=SHAPE_REPRESENTATION_RELATIONSHIP('SRR','None',#511,#26);
#24=SHAPE_REPRESENTATION_RELATIONSHIP('SRR','None',#512,#27);
#25=SHAPE_REPRESENTATION_RELATIONSHIP('SRR','None',#513,#28);
#26=ADVANCED_BREP_SHAPE_REPRESENTATION($,(#32),#489);
#27=ADVANCED_BREP_SHAPE_REPRESENTATION($,(#33),#490);
#28=ADVANCED_BREP_SHAPE_REPRESENTATION($,(#34),#491);
#29=STYLED_ITEM('',(#535),#32);
#30=STYLED_ITEM('',(#536),#33);
#31=STYLED_ITEM('',(#537),#34);
#32=MANIFOLD_SOLID_BREP('\X2\C194B9ACB4DC\X0\1',#261);
#33=MANIFOLD_SOLID_BREP('\X2\C194B9ACB4DC\X0\1',#262);
#34=MANIFOLD_SOLID_BREP('\X2\C194B9ACB4DC\X0\1',#263);
#35=PLANE('',#280);
#36=PLANE('',#281);
#37=PLANE('',#289);
#38=PLANE('',#295);
#39=PLANE('',#303);
#40=PLANE('',#309);
#41=TOROIDAL_SURFACE('',#271,7.58707526094184,0.2);
#42=TOROIDAL_SURFACE('',#278,6.3857864376269,1.);
#43=CYLINDRICAL_SURFACE('',#270,1.621);
#44=CYLINDRICAL_SURFACE('',#288,1.621);
#45=CYLINDRICAL_SURFACE('',#302,1.621);
#46=FACE_BOUND('',#88,.T.);
#47=FACE_BOUND('',#90,.T.);
#48=FACE_BOUND('',#92,.T.);
#49=FACE_BOUND('',#94,.T.);
#50=FACE_BOUND('',#96,.T.);
#51=FACE_BOUND('',#98,.T.);
#52=FACE_BOUND('',#101,.T.);
#53=FACE_BOUND('',#104,.T.);
#54=FACE_BOUND('',#106,.T.);
#55=FACE_BOUND('',#109,.T.);
#56=FACE_BOUND('',#111,.T.);
#57=FACE_BOUND('',#113,.T.);
#58=FACE_BOUND('',#116,.T.);
#59=FACE_BOUND('',#118,.T.);
#60=FACE_BOUND('',#121,.T.);
#61=FACE_BOUND('',#123,.T.);
#62=FACE_BOUND('',#125,.T.);
#63=FACE_OUTER_BOUND('',#86,.T.);
#64=FACE_OUTER_BOUND('',#87,.T.);
#65=FACE_OUTER_BOUND('',#89,.T.);
#66=FACE_OUTER_BOUND('',#91,.T.);
#67=FACE_OUTER_BOUND('',#93,.T.);
#68=FACE_OUTER_BOUND('',#95,.T.);
#69=FACE_OUTER_BOUND('',#97,.T.);
#70=FACE_OUTER_BOUND('',#99,.T.);
#71=FACE_OUTER_BOUND('',#100,.T.);
#72=FACE_OUTER_BOUND('',#102,.T.);
#73=FACE_OUTER_BOUND('',#103,.T.);
#74=FACE_OUTER_BOUND('',#105,.T.);
#75=FACE_OUTER_BOUND('',#107,.T.);
#76=FACE_OUTER_BOUND('',#108,.T.);
#77=FACE_OUTER_BOUND('',#110,.T.);
#78=FACE_OUTER_BOUND('',#112,.T.);
#79=FACE_OUTER_BOUND('',#114,.T.);
#80=FACE_OUTER_BOUND('',#115,.T.);
#81=FACE_OUTER_BOUND('',#117,.T.);
#82=FACE_OUTER_BOUND('',#119,.T.);
#83=FACE_OUTER_BOUND('',#120,.T.);
#84=FACE_OUTER_BOUND('',#122,.T.);
#85=FACE_OUTER_BOUND('',#124,.T.);
#86=EDGE_LOOP('',(#186));
#87=EDGE_LOOP('',(#187));
#88=EDGE_LOOP('',(#188));
#89=EDGE_LOOP('',(#189));
#90=EDGE_LOOP('',(#190));
#91=EDGE_LOOP('',(#191));
#92=EDGE_LOOP('',(#192));
#93=EDGE_LOOP('',(#193));
#94=EDGE_LOOP('',(#194));
#95=EDGE_LOOP('',(#195));
#96=EDGE_LOOP('',(#196));
#97=EDGE_LOOP('',(#197));
#98=EDGE_LOOP('',(#198));
#99=EDGE_LOOP('',(#199));
#100=EDGE_LOOP('',(#200));
#101=EDGE_LOOP('',(#201));
#102=EDGE_LOOP('',(#202));
#103=EDGE_LOOP('',(#203));
#104=EDGE_LOOP('',(#204));
#105=EDGE_LOOP('',(#205));
#106=EDGE_LOOP('',(#206));
#107=EDGE_LOOP('',(#207));
#108=EDGE_LOOP('',(#208));
#109=EDGE_LOOP('',(#209));
#110=EDGE_LOOP('',(#210));
#111=EDGE_LOOP('',(#211));
#112=EDGE_LOOP('',(#212));
#113=EDGE_LOOP('',(#213));
#114=EDGE_LOOP('',(#214));
#115=EDGE_LOOP('',(#215));
#116=EDGE_LOOP('',(#216));
#117=EDGE_LOOP('',(#217));
#118=EDGE_LOOP('',(#218));
#119=EDGE_LOOP('',(#219));
#120=EDGE_LOOP('',(#220));
#121=EDGE_LOOP('',(#221));
#122=EDGE_LOOP('',(#222));
#123=EDGE_LOOP('',(#223));
#124=EDGE_LOOP('',(#224));
#125=EDGE_LOOP('',(#225));
#126=CIRCLE('',#266,1.621);
#127=CIRCLE('',#268,2.5);
#128=CIRCLE('',#269,1.621);
#129=CIRCLE('',#272,7.78480414001851);
#130=CIRCLE('',#273,7.72849661717915);
#131=CIRCLE('',#275,7.09289321881345);
#132=CIRCLE('',#277,4.);
#133=CIRCLE('',#279,6.3857864376269);
#134=CIRCLE('',#284,1.621);
#135=CIRCLE('',#286,2.7);
#136=CIRCLE('',#287,1.621);
#137=CIRCLE('',#290,8.7);
#138=CIRCLE('',#292,9.7);
#139=CIRCLE('',#294,5.);
#140=CIRCLE('',#298,1.621);
#141=CIRCLE('',#300,2.7);
#142=CIRCLE('',#301,1.621);
#143=CIRCLE('',#304,10.75);
#144=CIRCLE('',#306,11.75);
#145=CIRCLE('',#308,7.);
#146=VERTEX_POINT('',#416);
#147=VERTEX_POINT('',#419);
#148=VERTEX_POINT('',#421);
#149=VERTEX_POINT('',#425);
#150=VERTEX_POINT('',#427);
#151=VERTEX_POINT('',#430);
#152=VERTEX_POINT('',#433);
#153=VERTEX_POINT('',#436);
#154=VERTEX_POINT('',#442);
#155=VERTEX_POINT('',#445);
#156=VERTEX_POINT('',#447);
#157=VERTEX_POINT('',#451);
#158=VERTEX_POINT('',#454);
#159=VERTEX_POINT('',#457);
#160=VERTEX_POINT('',#462);
#161=VERTEX_POINT('',#465);
#162=VERTEX_POINT('',#467);
#163=VERTEX_POINT('',#471);
#164=VERTEX_POINT('',#474);
#165=VERTEX_POINT('',#477);
#166=EDGE_CURVE('',#146,#146,#126,.T.);
#167=EDGE_CURVE('',#147,#147,#127,.T.);
#168=EDGE_CURVE('',#148,#148,#128,.T.);
#169=EDGE_CURVE('',#149,#149,#129,.T.);
#170=EDGE_CURVE('',#150,#150,#130,.T.);
#171=EDGE_CURVE('',#151,#151,#131,.T.);
#172=EDGE_CURVE('',#152,#152,#132,.T.);
#173=EDGE_CURVE('',#153,#153,#133,.T.);
#174=EDGE_CURVE('',#154,#154,#134,.T.);
#175=EDGE_CURVE('',#155,#155,#135,.T.);
#176=EDGE_CURVE('',#156,#156,#136,.T.);
#177=EDGE_CURVE('',#157,#157,#137,.T.);
#178=EDGE_CURVE('',#158,#158,#138,.T.);
#179=EDGE_CURVE('',#159,#159,#139,.T.);
#180=EDGE_CURVE('',#160,#160,#140,.T.);
#181=EDGE_CURVE('',#161,#161,#141,.T.);
#182=EDGE_CURVE('',#162,#162,#142,.T.);
#183=EDGE_CURVE('',#163,#163,#143,.T.);
#184=EDGE_CURVE('',#164,#164,#144,.T.);
#185=EDGE_CURVE('',#165,#165,#145,.T.);
#186=ORIENTED_EDGE('',*,*,#166,.T.);
#187=ORIENTED_EDGE('',*,*,#167,.F.);
#188=ORIENTED_EDGE('',*,*,#168,.F.);
#189=ORIENTED_EDGE('',*,*,#168,.T.);
#190=ORIENTED_EDGE('',*,*,#166,.F.);
#191=ORIENTED_EDGE('',*,*,#169,.T.);
#192=ORIENTED_EDGE('',*,*,#170,.T.);
#193=ORIENTED_EDGE('',*,*,#171,.F.);
#194=ORIENTED_EDGE('',*,*,#170,.F.);
#195=ORIENTED_EDGE('',*,*,#172,.T.);
#196=ORIENTED_EDGE('',*,*,#169,.F.);
#197=ORIENTED_EDGE('',*,*,#171,.T.);
#198=ORIENTED_EDGE('',*,*,#173,.T.);
#199=ORIENTED_EDGE('',*,*,#173,.F.);
#200=ORIENTED_EDGE('',*,*,#172,.F.);
#201=ORIENTED_EDGE('',*,*,#167,.T.);
#202=ORIENTED_EDGE('',*,*,#174,.T.);
#203=ORIENTED_EDGE('',*,*,#175,.F.);
#204=ORIENTED_EDGE('',*,*,#176,.F.);
#205=ORIENTED_EDGE('',*,*,#176,.T.);
#206=ORIENTED_EDGE('',*,*,#174,.F.);
#207=ORIENTED_EDGE('',*,*,#177,.F.);
#208=ORIENTED_EDGE('',*,*,#177,.T.);
#209=ORIENTED_EDGE('',*,*,#178,.F.);
#210=ORIENTED_EDGE('',*,*,#178,.T.);
#211=ORIENTED_EDGE('',*,*,#179,.F.);
#212=ORIENTED_EDGE('',*,*,#179,.T.);
#213=ORIENTED_EDGE('',*,*,#175,.T.);
#214=ORIENTED_EDGE('',*,*,#180,.T.);
#215=ORIENTED_EDGE('',*,*,#181,.F.);
#216=ORIENTED_EDGE('',*,*,#182,.F.);
#217=ORIENTED_EDGE('',*,*,#182,.T.);
#218=ORIENTED_EDGE('',*,*,#180,.F.);
#219=ORIENTED_EDGE('',*,*,#183,.F.);
#220=ORIENTED_EDGE('',*,*,#183,.T.);
#221=ORIENTED_EDGE('',*,*,#184,.F.);
#222=ORIENTED_EDGE('',*,*,#184,.T.);
#223=ORIENTED_EDGE('',*,*,#185,.F.);
#224=ORIENTED_EDGE('',*,*,#185,.T.);
#225=ORIENTED_EDGE('',*,*,#181,.T.);
#226=CONICAL_SURFACE('',#265,0.8105,59.);
#227=CONICAL_SURFACE('',#267,2.0605,45.);
#228=CONICAL_SURFACE('',#274,7.3,45.);
#229=CONICAL_SURFACE('',#276,5.9,8.64280258000453);
#230=CONICAL_SURFACE('',#283,0.8105,59.);
#231=CONICAL_SURFACE('',#285,2.1605,45.);
#232=CONICAL_SURFACE('',#291,9.2,45.);
#233=CONICAL_SURFACE('',#293,7.35,9.87476220708039);
#234=CONICAL_SURFACE('',#297,0.8105,59.);
#235=CONICAL_SURFACE('',#299,2.1605,45.);
#236=CONICAL_SURFACE('',#305,11.25,45.);
#237=CONICAL_SURFACE('',#307,9.375,9.6281561284867);
#238=ADVANCED_FACE('',(#63),#226,.F.);
#239=ADVANCED_FACE('',(#64,#46),#227,.F.);
#240=ADVANCED_FACE('',(#65,#47),#43,.F.);
#241=ADVANCED_FACE('',(#66,#48),#41,.T.);
#242=ADVANCED_FACE('',(#67,#49),#228,.T.);
#243=ADVANCED_FACE('',(#68,#50),#229,.T.);
#244=ADVANCED_FACE('',(#69,#51),#42,.T.);
#245=ADVANCED_FACE('',(#70),#35,.T.);
#246=ADVANCED_FACE('',(#71,#52),#36,.T.);
#247=ADVANCED_FACE('',(#72),#230,.F.);
#248=ADVANCED_FACE('',(#73,#53),#231,.F.);
#249=ADVANCED_FACE('',(#74,#54),#44,.F.);
#250=ADVANCED_FACE('',(#75),#37,.T.);
#251=ADVANCED_FACE('',(#76,#55),#232,.T.);
#252=ADVANCED_FACE('',(#77,#56),#233,.T.);
#253=ADVANCED_FACE('',(#78,#57),#38,.T.);
#254=ADVANCED_FACE('',(#79),#234,.F.);
#255=ADVANCED_FACE('',(#80,#58),#235,.F.);
#256=ADVANCED_FACE('',(#81,#59),#45,.F.);
#257=ADVANCED_FACE('',(#82),#39,.T.);
#258=ADVANCED_FACE('',(#83,#60),#236,.T.);
#259=ADVANCED_FACE('',(#84,#61),#237,.T.);
#260=ADVANCED_FACE('',(#85,#62),#40,.T.);
#261=CLOSED_SHELL('',(#238,#239,#240,#241,#242,#243,#244,#245,#246));
#262=CLOSED_SHELL('',(#247,#248,#249,#250,#251,#252,#253));
#263=CLOSED_SHELL('',(#254,#255,#256,#257,#258,#259,#260));
#264=AXIS2_PLACEMENT_3D('placement',#414,#314,#315);
#265=AXIS2_PLACEMENT_3D('',#415,#316,#317);
#266=AXIS2_PLACEMENT_3D('',#417,#318,#319);
#267=AXIS2_PLACEMENT_3D('',#418,#320,#321);
#268=AXIS2_PLACEMENT_3D('',#420,#322,#323);
#269=AXIS2_PLACEMENT_3D('',#422,#324,#325);
#270=AXIS2_PLACEMENT_3D('',#423,#326,#327);
#271=AXIS2_PLACEMENT_3D('',#424,#328,#329);
#272=AXIS2_PLACEMENT_3D('',#426,#330,#331);
#273=AXIS2_PLACEMENT_3D('',#428,#332,#333);
#274=AXIS2_PLACEMENT_3D('',#429,#334,#335);
#275=AXIS2_PLACEMENT_3D('',#431,#336,#337);
#276=AXIS2_PLACEMENT_3D('',#432,#338,#339);
#277=AXIS2_PLACEMENT_3D('',#434,#340,#341);
#278=AXIS2_PLACEMENT_3D('',#435,#342,#343);
#279=AXIS2_PLACEMENT_3D('',#437,#344,#345);
#280=AXIS2_PLACEMENT_3D('',#438,#346,#347);
#281=AXIS2_PLACEMENT_3D('',#439,#348,#349);
#282=AXIS2_PLACEMENT_3D('placement',#440,#350,#351);
#283=AXIS2_PLACEMENT_3D('',#441,#352,#353);
#284=AXIS2_PLACEMENT_3D('',#443,#354,#355);
#285=AXIS2_PLACEMENT_3D('',#444,#356,#357);
#286=AXIS2_PLACEMENT_3D('',#446,#358,#359);
#287=AXIS2_PLACEMENT_3D('',#448,#360,#361);
#288=AXIS2_PLACEMENT_3D('',#449,#362,#363);
#289=AXIS2_PLACEMENT_3D('',#450,#364,#365);
#290=AXIS2_PLACEMENT_3D('',#452,#366,#367);
#291=AXIS2_PLACEMENT_3D('',#453,#368,#369);
#292=AXIS2_PLACEMENT_3D('',#455,#370,#371);
#293=AXIS2_PLACEMENT_3D('',#456,#372,#373);
#294=AXIS2_PLACEMENT_3D('',#458,#374,#375);
#295=AXIS2_PLACEMENT_3D('',#459,#376,#377);
#296=AXIS2_PLACEMENT_3D('placement',#460,#378,#379);
#297=AXIS2_PLACEMENT_3D('',#461,#380,#381);
#298=AXIS2_PLACEMENT_3D('',#463,#382,#383);
#299=AXIS2_PLACEMENT_3D('',#464,#384,#385);
#300=AXIS2_PLACEMENT_3D('',#466,#386,#387);
#301=AXIS2_PLACEMENT_3D('',#468,#388,#389);
#302=AXIS2_PLACEMENT_3D('',#469,#390,#391);
#303=AXIS2_PLACEMENT_3D('',#470,#392,#393);
#304=AXIS2_PLACEMENT_3D('',#472,#394,#395);
#305=AXIS2_PLACEMENT_3D('',#473,#396,#397);
#306=AXIS2_PLACEMENT_3D('',#475,#398,#399);
#307=AXIS2_PLACEMENT_3D('',#476,#400,#401);
#308=AXIS2_PLACEMENT_3D('',#478,#402,#403);
#309=AXIS2_PLACEMENT_3D('',#479,#404,#405);
#310=AXIS2_PLACEMENT_3D('placement',#480,#406,#407);
#311=AXIS2_PLACEMENT_3D('',#481,#408,#409);
#312=AXIS2_PLACEMENT_3D('',#482,#410,#411);
#313=AXIS2_PLACEMENT_3D('',#483,#412,#413);
#314=DIRECTION('axis',(0.,0.,1.));
#315=DIRECTION('refdir',(1.,0.,0.));
#316=DIRECTION('center_axis',(0.,-1.,0.));
#317=DIRECTION('ref_axis',(1.,0.,0.));
#318=DIRECTION('center_axis',(0.,-1.,0.));
#319=DIRECTION('ref_axis',(1.,0.,0.));
#320=DIRECTION('center_axis',(0.,-1.,0.));
#321=DIRECTION('ref_axis',(1.,0.,0.));
#322=DIRECTION('center_axis',(0.,1.,0.));
#323=DIRECTION('ref_axis',(1.,0.,0.));
#324=DIRECTION('center_axis',(0.,-1.,0.));
#325=DIRECTION('ref_axis',(1.,0.,0.));
#326=DIRECTION('center_axis',(0.,-1.,0.));
#327=DIRECTION('ref_axis',(1.,0.,0.));
#328=DIRECTION('center_axis',(0.,1.,0.));
#329=DIRECTION('ref_axis',(0.,0.,1.));
#330=DIRECTION('center_axis',(0.,1.,0.));
#331=DIRECTION('ref_axis',(1.,0.,-6.12323399573677E-17));
#332=DIRECTION('center_axis',(0.,-1.,0.));
#333=DIRECTION('ref_axis',(1.,0.,-6.12323399573677E-17));
#334=DIRECTION('center_axis',(0.,-1.,0.));
#335=DIRECTION('ref_axis',(-1.,0.,0.));
#336=DIRECTION('center_axis',(0.,1.,0.));
#337=DIRECTION('ref_axis',(1.,0.,-6.12323399573677E-17));
#338=DIRECTION('center_axis',(0.,1.,0.));
#339=DIRECTION('ref_axis',(-1.,0.,0.));
#340=DIRECTION('center_axis',(0.,1.,0.));
#341=DIRECTION('ref_axis',(1.,0.,0.));
#342=DIRECTION('center_axis',(0.,1.,0.));
#343=DIRECTION('ref_axis',(0.,0.,1.));
#344=DIRECTION('center_axis',(0.,-1.,0.));
#345=DIRECTION('ref_axis',(1.,0.,0.));
#346=DIRECTION('center_axis',(0.,1.,0.));
#347=DIRECTION('ref_axis',(0.,0.,1.));
#348=DIRECTION('center_axis',(0.,-1.,0.));
#349=DIRECTION('ref_axis',(0.,0.,-1.));
#350=DIRECTION('axis',(0.,0.,1.));
#351=DIRECTION('refdir',(1.,0.,0.));
#352=DIRECTION('center_axis',(1.98254111540206E-16,-1.,0.));
#353=DIRECTION('ref_axis',(1.,1.98254111540206E-16,0.));
#354=DIRECTION('center_axis',(1.98254111540206E-16,-1.,0.));
#355=DIRECTION('ref_axis',(1.,1.98254111540206E-16,0.));
#356=DIRECTION('center_axis',(1.98254111540206E-16,-1.,0.));
#357=DIRECTION('ref_axis',(1.,1.98254111540206E-16,0.));
#358=DIRECTION('center_axis',(-1.98254111540206E-16,1.,0.));
#359=DIRECTION('ref_axis',(1.,1.98254111540206E-16,0.));
#360=DIRECTION('center_axis',(1.98254111540206E-16,-1.,0.));
#361=DIRECTION('ref_axis',(1.,1.98254111540206E-16,0.));
#362=DIRECTION('center_axis',(1.98254111540206E-16,-1.,0.));
#363=DIRECTION('ref_axis',(1.,1.98254111540206E-16,0.));
#364=DIRECTION('center_axis',(-1.98254111540206E-16,1.,0.));
#365=DIRECTION('ref_axis',(0.,0.,1.));
#366=DIRECTION('center_axis',(1.98254111540206E-16,-1.,0.));
#367=DIRECTION('ref_axis',(1.,1.98254111540206E-16,0.));
#368=DIRECTION('center_axis',(1.98254111540206E-16,-1.,0.));
#369=DIRECTION('ref_axis',(1.,1.98254111540206E-16,0.));
#370=DIRECTION('center_axis',(1.98254111540206E-16,-1.,0.));
#371=DIRECTION('ref_axis',(1.,1.98254111540206E-16,0.));
#372=DIRECTION('center_axis',(-1.98254111540206E-16,1.,0.));
#373=DIRECTION('ref_axis',(1.,1.98254111540206E-16,0.));
#374=DIRECTION('center_axis',(1.98254111540206E-16,-1.,0.));
#375=DIRECTION('ref_axis',(1.,1.98254111540206E-16,0.));
#376=DIRECTION('center_axis',(1.98254111540206E-16,-1.,0.));
#377=DIRECTION('ref_axis',(0.,0.,-1.));
#378=DIRECTION('axis',(0.,0.,1.));
#379=DIRECTION('refdir',(1.,0.,0.));
#380=DIRECTION('center_axis',(1.53134210293125E-16,-1.,0.));
#381=DIRECTION('ref_axis',(1.,1.53134210293125E-16,0.));
#382=DIRECTION('center_axis',(1.53134210293125E-16,-1.,0.));
#383=DIRECTION('ref_axis',(1.,1.53134210293125E-16,0.));
#384=DIRECTION('center_axis',(1.53134210293125E-16,-1.,0.));
#385=DIRECTION('ref_axis',(1.,1.53134210293125E-16,0.));
#386=DIRECTION('center_axis',(-1.53134210293125E-16,1.,0.));
#387=DIRECTION('ref_axis',(1.,1.53134210293125E-16,0.));
#388=DIRECTION('center_axis',(1.53134210293125E-16,-1.,0.));
#389=DIRECTION('ref_axis',(1.,1.53134210293125E-16,0.));
#390=DIRECTION('center_axis',(1.53134210293125E-16,-1.,0.));
#391=DIRECTION('ref_axis',(1.,1.53134210293125E-16,0.));
#392=DIRECTION('center_axis',(-1.53134210293125E-16,1.,0.));
#393=DIRECTION('ref_axis',(0.,0.,1.));
#394=DIRECTION('center_axis',(1.53134210293125E-16,-1.,0.));
#395=DIRECTION('ref_axis',(1.,1.53134210293125E-16,0.));
#396=DIRECTION('center_axis',(1.53134210293125E-16,-1.,0.));
#397=DIRECTION('ref_axis',(1.,1.53134210293125E-16,0.));
#398=DIRECTION('center_axis',(1.53134210293125E-16,-1.,0.));
#399=DIRECTION('ref_axis',(1.,1.53134210293125E-16,0.));
#400=DIRECTION('center_axis',(-1.53134210293125E-16,1.,0.));
#401=DIRECTION('ref_axis',(1.,1.53134210293125E-16,0.));
#402=DIRECTION('center_axis',(1.53134210293125E-16,-1.,0.));
#403=DIRECTION('ref_axis',(1.,1.53134210293125E-16,0.));
#404=DIRECTION('center_axis',(1.53134210293125E-16,-1.,0.));
#405=DIRECTION('ref_axis',(0.,0.,-1.));
#406=DIRECTION('axis',(0.,0.,1.));
#407=DIRECTION('refdir',(1.,0.,0.));
#408=DIRECTION('',(3.81639164714893E-16,1.45022882591658E-15,1.));
#409=DIRECTION('',(1.,-7.09501901674513E-16,-3.81639164714892E-16));
#410=DIRECTION('',(6.73072708679E-16,5.62050406216486E-16,1.));
#411=DIRECTION('',(1.,7.49400541621979E-16,-6.73072708679001E-16));
#412=DIRECTION('',(3.33066907387547E-16,1.38777878078145E-16,1.));
#413=DIRECTION('',(1.,-7.77156117237609E-16,-3.33066907387547E-16));
#414=CARTESIAN_POINT('',(0.,0.,0.));
#415=CARTESIAN_POINT('Origin',(0.,15.4869975317218,0.));
#416=CARTESIAN_POINT('',(1.621,15.,0.));
#417=CARTESIAN_POINT('Origin',(0.,15.,0.));
#418=CARTESIAN_POINT('Origin',(0.,0.439499999999999,0.));
#419=CARTESIAN_POINT('',(2.5,-4.89858719658941E-16,0.));
#420=CARTESIAN_POINT('Origin',(0.,-4.85722573273506E-16,0.));
#421=CARTESIAN_POINT('',(1.621,0.878999999999999,0.));
#422=CARTESIAN_POINT('Origin',(0.,0.878999999999999,0.));
#423=CARTESIAN_POINT('Origin',(0.,7.5,0.));
#424=CARTESIAN_POINT('Origin',(0.,24.9300820265835,0.));
#425=CARTESIAN_POINT('',(-7.78480414001851,24.9000272369639,9.53363547206273E-16));
#426=CARTESIAN_POINT('Origin',(0.,24.9000272369639,-4.76681773603137E-16));
#427=CARTESIAN_POINT('',(-7.72849661717915,25.0715033828209,-9.46467864444959E-16));
#428=CARTESIAN_POINT('Origin',(0.,25.0715033828209,-4.73233932222479E-16));
#429=CARTESIAN_POINT('Origin',(0.,25.5,0.));
#430=CARTESIAN_POINT('',(-7.09289321881345,25.7071067811865,8.68628897711386E-16));
#431=CARTESIAN_POINT('Origin',(0.,25.7071067811865,-4.34314448855693E-16));
#432=CARTESIAN_POINT('Origin',(0.,12.5,0.));
#433=CARTESIAN_POINT('',(-4.,-4.89858719658941E-16,0.));
#434=CARTESIAN_POINT('Origin',(0.,0.,0.));
#435=CARTESIAN_POINT('Origin',(0.,25.,0.));
#436=CARTESIAN_POINT('',(-6.3857864376269,26.,-7.82033292087837E-16));
#437=CARTESIAN_POINT('Origin',(0.,26.,0.));
#438=CARTESIAN_POINT('Origin',(0.,26.,0.));
#439=CARTESIAN_POINT('Origin',(-4.,-4.89858719658941E-16,0.));
#440=CARTESIAN_POINT('',(0.,0.,0.));
#441=CARTESIAN_POINT('Origin',(-3.07036093607688E-15,15.4869975317218,0.));
#442=CARTESIAN_POINT('',(1.621,15.,0.));
#443=CARTESIAN_POINT('Origin',(-2.9738116731031E-15,15.,0.));
#444=CARTESIAN_POINT('Origin',(-1.06958093175941E-16,0.5395,0.));
#445=CARTESIAN_POINT('',(2.7,5.35286101158557E-16,0.));
#446=CARTESIAN_POINT('Origin',(0.,0.,0.));
#447=CARTESIAN_POINT('',(1.621,1.079,0.));
#448=CARTESIAN_POINT('Origin',(-2.13916186351883E-16,1.079,0.));
#449=CARTESIAN_POINT('Origin',(-1.48690583655155E-15,7.5,0.));
#450=CARTESIAN_POINT('Origin',(8.7,28.,0.));
#451=CARTESIAN_POINT('',(8.7,28.,0.));
#452=CARTESIAN_POINT('Origin',(-5.55111512312578E-15,28.,0.));
#453=CARTESIAN_POINT('Origin',(-5.45198806735568E-15,27.5,0.));
#454=CARTESIAN_POINT('',(9.7,27.,0.));
#455=CARTESIAN_POINT('Origin',(-5.35286101158557E-15,27.,0.));
#456=CARTESIAN_POINT('Origin',(-2.67643050579279E-15,13.5,0.));
#457=CARTESIAN_POINT('',(5.,0.,0.));
#458=CARTESIAN_POINT('Origin',(1.96523463712983E-31,-9.91270557701032E-16,
0.));
#459=CARTESIAN_POINT('Origin',(0.,0.,0.));
#460=CARTESIAN_POINT('',(0.,0.,0.));
#461=CARTESIAN_POINT('Origin',(-2.3715891368318E-15,15.4869975317218,0.));
#462=CARTESIAN_POINT('',(1.621,15.,0.));
#463=CARTESIAN_POINT('Origin',(-2.29701315439688E-15,15.,0.));
#464=CARTESIAN_POINT('Origin',(-8.2615906453141E-17,0.5395,0.));
#465=CARTESIAN_POINT('',(2.7,4.13462367791438E-16,0.));
#466=CARTESIAN_POINT('Origin',(0.,0.,0.));
#467=CARTESIAN_POINT('',(1.621,1.079,0.));
#468=CARTESIAN_POINT('Origin',(-1.65231812906282E-16,1.079,0.));
#469=CARTESIAN_POINT('Origin',(-1.14850657719844E-15,7.5,0.));
#470=CARTESIAN_POINT('Origin',(10.75,29.,0.));
#471=CARTESIAN_POINT('',(10.75,29.,0.));
#472=CARTESIAN_POINT('Origin',(-4.44089209850063E-15,29.,0.));
#473=CARTESIAN_POINT('Origin',(-4.36432499335407E-15,28.5,0.));
#474=CARTESIAN_POINT('',(11.75,28.,0.));
#475=CARTESIAN_POINT('Origin',(-4.28775788820751E-15,28.,0.));
#476=CARTESIAN_POINT('Origin',(-2.14387894410375E-15,14.,0.));
#477=CARTESIAN_POINT('',(7.,0.,0.));
#478=CARTESIAN_POINT('Origin',(1.64150604534694E-31,-1.07193947205188E-15,
0.));
#479=CARTESIAN_POINT('Origin',(0.,0.,0.));
#480=CARTESIAN_POINT('',(0.,0.,0.));
#481=CARTESIAN_POINT('',(-84.8706332465574,-20.9318898487995,-20.9260668440677));
#482=CARTESIAN_POINT('',(-53.1624189084882,-20.8788177503677,-18.9797888740029));
#483=CARTESIAN_POINT('',(-18.038151815347,-20.8650216768737,-17.1739309668204));
#484=UNCERTAINTY_MEASURE_WITH_UNIT(LENGTH_MEASURE(0.01),#494,
'DISTANCE_ACCURACY_VALUE',
'Maximum model space distance between geometric entities at asserted c
onnectivities');
#485=UNCERTAINTY_MEASURE_WITH_UNIT(LENGTH_MEASURE(0.01),#494,
'DISTANCE_ACCURACY_VALUE',
'Maximum model space distance between geometric entities at asserted c
onnectivities');
#486=UNCERTAINTY_MEASURE_WITH_UNIT(LENGTH_MEASURE(0.01),#494,
'DISTANCE_ACCURACY_VALUE',
'Maximum model space distance between geometric entities at asserted c
onnectivities');
#487=UNCERTAINTY_MEASURE_WITH_UNIT(LENGTH_MEASURE(0.01),#494,
'DISTANCE_ACCURACY_VALUE',
'Maximum model space distance between geometric entities at asserted c
onnectivities');
#488=UNCERTAINTY_MEASURE_WITH_UNIT(LENGTH_MEASURE(1.E-6),#494,
'DISTANCE_ACCURACY_VALUE',
'Maximum model space distance between geometric entities at asserted c
onnectivities');
#489=(
GEOMETRIC_REPRESENTATION_CONTEXT(3)
GLOBAL_UNCERTAINTY_ASSIGNED_CONTEXT((#484))
GLOBAL_UNIT_ASSIGNED_CONTEXT((#494,#497,#495))
REPRESENTATION_CONTEXT('','3D')
);
#490=(
GEOMETRIC_REPRESENTATION_CONTEXT(3)
GLOBAL_UNCERTAINTY_ASSIGNED_CONTEXT((#485))
GLOBAL_UNIT_ASSIGNED_CONTEXT((#494,#497,#495))
REPRESENTATION_CONTEXT('','3D')
);
#491=(
GEOMETRIC_REPRESENTATION_CONTEXT(3)
GLOBAL_UNCERTAINTY_ASSIGNED_CONTEXT((#486))
GLOBAL_UNIT_ASSIGNED_CONTEXT((#494,#497,#495))
REPRESENTATION_CONTEXT('','3D')
);
#492=(
GEOMETRIC_REPRESENTATION_CONTEXT(3)
GLOBAL_UNCERTAINTY_ASSIGNED_CONTEXT((#487))
GLOBAL_UNIT_ASSIGNED_CONTEXT((#494,#497,#495))
REPRESENTATION_CONTEXT('','3D')
);
#493=(
GEOMETRIC_REPRESENTATION_CONTEXT(3)
GLOBAL_UNCERTAINTY_ASSIGNED_CONTEXT((#488))
GLOBAL_UNIT_ASSIGNED_CONTEXT((#494,#497,#495))
REPRESENTATION_CONTEXT('','3D')
);
#494=(
LENGTH_UNIT()
NAMED_UNIT(*)
SI_UNIT(.MILLI.,.METRE.)
);
#495=(
NAMED_UNIT(*)
SI_UNIT($,.STERADIAN.)
SOLID_ANGLE_UNIT()
);
#496=DIMENSIONAL_EXPONENTS(0.,0.,0.,0.,0.,0.,0.);
#497=(
CONVERSION_BASED_UNIT('degree',#499)
NAMED_UNIT(#496)
PLANE_ANGLE_UNIT()
);
#498=(
NAMED_UNIT(*)
PLANE_ANGLE_UNIT()
SI_UNIT($,.RADIAN.)
);
#499=PLANE_ANGLE_MEASURE_WITH_UNIT(PLANE_ANGLE_MEASURE(0.01745329252),#498);
#500=SHAPE_DEFINITION_REPRESENTATION(#504,#511);
#501=SHAPE_DEFINITION_REPRESENTATION(#505,#512);
#502=SHAPE_DEFINITION_REPRESENTATION(#506,#513);
#503=SHAPE_DEFINITION_REPRESENTATION(#507,#514);
#504=PRODUCT_DEFINITION_SHAPE('',$,#516);
#505=PRODUCT_DEFINITION_SHAPE('',$,#517);
#506=PRODUCT_DEFINITION_SHAPE('',$,#518);
#507=PRODUCT_DEFINITION_SHAPE('',$,#519);
#508=PRODUCT_DEFINITION_SHAPE($,$,#20);
#509=PRODUCT_DEFINITION_SHAPE($,$,#21);
#510=PRODUCT_DEFINITION_SHAPE($,$,#22);
#511=SHAPE_REPRESENTATION('',(#264),#489);
#512=SHAPE_REPRESENTATION('',(#282),#490);
#513=SHAPE_REPRESENTATION('',(#296),#491);
#514=SHAPE_REPRESENTATION('',(#310,#311,#312,#313),#492);
#515=PRODUCT_DEFINITION_CONTEXT('part definition',#529,'design');
#516=PRODUCT_DEFINITION('A-CS3-16','A-CS3-16',#520,#515);
#517=PRODUCT_DEFINITION('A-CS3-20-316','A-CS3-20-316',#521,#515);
#518=PRODUCT_DEFINITION('A-CS3-24-316','A-CS3-24-316',#522,#515);
#519=PRODUCT_DEFINITION('A-CS3_M','A-CS3_M',#523,#515);
#520=PRODUCT_DEFINITION_FORMATION('',$,#531);
#521=PRODUCT_DEFINITION_FORMATION('',$,#532);
#522=PRODUCT_DEFINITION_FORMATION('',$,#533);
#523=PRODUCT_DEFINITION_FORMATION('',$,#534);
#524=PRODUCT_RELATED_PRODUCT_CATEGORY('A-CS3-16','A-CS3-16',(#531));
#525=PRODUCT_RELATED_PRODUCT_CATEGORY('A-CS3-20-316','A-CS3-20-316',(#532));
#526=PRODUCT_RELATED_PRODUCT_CATEGORY('A-CS3-24-316','A-CS3-24-316',(#533));
#527=PRODUCT_RELATED_PRODUCT_CATEGORY('A-CS3_M','A-CS3_M',(#534));
#528=APPLICATION_PROTOCOL_DEFINITION('international standard',
'automotive_design',2009,#529);
#529=APPLICATION_CONTEXT(
'Core Data for Automotive Mechanical Design Process');
#530=PRODUCT_CONTEXT('part definition',#529,'mechanical');
#531=PRODUCT('A-CS3-16','A-CS3-16',$,(#530));
#532=PRODUCT('A-CS3-20-316','A-CS3-20-316',$,(#530));
#533=PRODUCT('A-CS3-24-316','A-CS3-24-316',$,(#530));
#534=PRODUCT('A-CS3_M','A-CS3_M',$,(#530));
#535=PRESENTATION_STYLE_ASSIGNMENT((#538));
#536=PRESENTATION_STYLE_ASSIGNMENT((#539));
#537=PRESENTATION_STYLE_ASSIGNMENT((#540));
#538=SURFACE_STYLE_USAGE(.BOTH.,#541);
#539=SURFACE_STYLE_USAGE(.BOTH.,#542);
#540=SURFACE_STYLE_USAGE(.BOTH.,#543);
#541=SURFACE_SIDE_STYLE($,(#544));
#542=SURFACE_SIDE_STYLE($,(#545));
#543=SURFACE_SIDE_STYLE($,(#546));
#544=SURFACE_STYLE_FILL_AREA(#547);
#545=SURFACE_STYLE_FILL_AREA(#548);
#546=SURFACE_STYLE_FILL_AREA(#549);
#547=FILL_AREA_STYLE($,(#550));
#548=FILL_AREA_STYLE($,(#551));
#549=FILL_AREA_STYLE($,(#552));
#550=FILL_AREA_STYLE_COLOUR($,#553);
#551=FILL_AREA_STYLE_COLOUR($,#554);
#552=FILL_AREA_STYLE_COLOUR($,#555);
#553=COLOUR_RGB('',1.,1.,1.);
#554=COLOUR_RGB('',1.,1.,1.);
#555=COLOUR_RGB('',1.,1.,1.);
ENDSEC;
END-ISO-10303-21;
